Goldfinger - The Innocent Chords

 
         
         
         
         
X
X
1
3
2
2 fr
         
         
         
         
X
4
3
1
2
1
5 fr
         
         
         
         
X
1
2
3
4
1
5 fr
         
         
         
         
X
1
4
4
4
X
7 fr
         
         
         
         
4
3
1
1
1
X
7 fr
         
         
         
         
3
2
1
1
1
4

10 fr
         
         
         
         
1
3
4
2
1
1
12 fr
         
         
         
         
X
X
1
3
4
3
5 fr
         
         
         
         
X
X
         
         
         
         
X
1
2
3
5 fr
         
         
         
         
1
3
4
2
1
1
2 fr
         
         
         
         
X
1
1
1
4
         
         
         
         
X
X
1
2
2 fr
         
         
         
         
3
2
1
1
1
4
7 fr
         
         
         
         
X
X
1
3
4
3

9 fr
         
         
         
         
X
4
3
1
2
1
12 fr
         
         
         
         
X
1
3
3
3
1
         
         
         
         
3
2
4
3 fr
         
         
         
         
1
3
4
2
1
1
         
         
         
         
2
1
3
4
3 fr
         
         
         
         
X
X
3
2
1
1
5 fr
         
         
         
         
X
X
1
3
4
3
7 fr
         
         
         
         
X
4
3
1
2
1

10 fr
         
         
         
         
X
1
2
3
4
X
10 fr
         
         
         
         
X
1
3
3
3
1
12 fr
         
         
         
         
3
2
1
1
1
4

F

variations
         
         
         
         
1
3
4
2
1
1
         
         
         
         
X
X
3
2
1
1
6 fr
         
         
         
         
X
4
3
1
2
1
4 fr
         
         
         
         
X
X
1
2
4
3
9 fr
         
         
         
         
X
1
3
3
3
1
11 fr
         
         
         
         
4
3
1
1
1
X

11 fr
         
         
         
         
3
2
1
1
1
4
7 fr
         
         
         
         
1
3
4
2
1
1
         
         
         
         
X
2
1
X
3
         
         
         
         
X
1
4
4
4
X
         
         
         
         
X
1
3
3
3
1
4 fr
         
         
         
         
4
3
1
1
1
X
4 fr
         
         
         
         
3
2
1
1
1
4

9 fr
         
         
         
         
X
X
1
3
4
3
11 fr
         
         
         
         
X
4
3
1
2
1
No chord
Standard guitar tuning:
E
A
D
G
B
E
No capo

Bridge

tail piece) and scrape your pick, holding it perpendicular to the strings, to the headstock. Timing is also easy so you should pick right up on it. Just listen. Easy enough. :)
Chord Key:

D A G F B

E|---------------------------------| B|---------------------------------| G|--7------------------------------| D|--7------7------5------4------9--| A|--5------7------5------4------9--| E|---------5------3------2------7--|

Intro

D

Verse 1

DThe start of ArmaAgeddon, It was Bjust anotAher Gday DWe all saw the neAws nothing to sGay A DSo many friends are Amissing, and Bfamily memAbers Ggone DSo we all pray to AGod "help them be Gstrong" DAnd now we stand toAgether, Bremembering Athat Gday DThe lives we live will Anever be the Gsame

Chorus 1

DAnd we don't know why A BThe innocent die F GWill this world ever Afind a way to Bchange? DAnd we don't know why A BBut we know its not right F GDon't know why so Amany had to Bdie GWe don't know why so Amany had to Ddie

Verse 2

DHate is turned to Aothers for their Breligion or Atheir Gskin DBut hate can't stop the Aproblem it Gbegan DEveryone is Aangry, Bpeople are AafGraid DAnd no one knows what Adecisions will be Gmade

Chorus 2

DWe don't know why A BThe innocent die F GWill this world ever Afind a way to Bchange? DAnd we don't know why A BBut we know it's not right F GWe don't know why so Amany had to Bdie GDon't know why so Amany had to Ddie
  play over verse chords x2
E|-------------------------------------------------------------------|
B|-------------------------------------------------------------------|
G|-------------------------------------------------------------------|
D|--------------------------------------------------4----6----7----9-|
A|--5--5-5-5\7-5-4~-4/2-2-2-2-0-2~-4-5-0---4-4-5-22-2-44-4-55-5-77-7-|
E|---------------------------------------2---------------------------|
xx xx xx xx
E|-------------------------------------------------------------------------|
B|-------------------------------------------------------------------------|
G|-------------------------------------------------------------------------|
D|--0-0-4p0-5p0-4p0-0-0-4p0-5p0-4p0-0-0-4p0-5p0-7p0-9p0-7p0-5p0-4p0-0-0-4p0|
A|-------------------------------------------------------------------------|
E|-------------------------------------------------------------------------|
                            Harm.
E|-------------------------|------------------------------------|
B|-------------------------|<7~>-----------------------------|
G|-------------------------|-------<7~>-----------------<7~~~~>-|
D|-5p0-4p0-0-0-4p0-5p0-4p0-|--------------<7~>------------------|
A|-------------------------|------------------------------------|
E|-------------------------|------------------------------------|

Chorus 3

DWe don't know why (Adon't know why) BThe innocent die (dFon't know why) GWill this world ever Afind a way to Bchange DAnd we don't know why (dAon't know why) BBut we know its not right (Fdon't know why) GWill any of us Aever be the Bsame GWill any of this Aever be the Dsame

Outro

I hear thDe guitar strumming barred forms of D, A, Bm, G in the background | / slide up | \ slide down | B hammer-on | p pull-off | ~ vibrato | <> harmonic | x palm mute note