Goldfinger - This Lonely Place Chords

 
No chord
Standard guitar tuning:
E
A
D
G
B
E
No capo

Intro

Played with slight distortion throughout. About 10 seconds of faint music then guitar enters
                 1,2,3,4...   Band enters
e-|--2-2-2-2-0--|-2-2-2-2-0--|-2-2-2-2-0--|-3-3-3-3-3-|
B-|--3-3-3-3-3--|-3-3-3-3-3--|-3-3-3-3-3--|-3-3-3-3-3-|
G-|--2-2-2-2-2--|-2-2-2-2-2--|-2-2-2-2-2--|-0-0-0-0-0-|
D-|-------------|------------|------------|-----------|
A-|-------------|------------|------------|-----------|
E-|-------------|------------|------------|-----------|
e-|-5-5-5-5-5-|-3-3-3-3-3-|-2-2-2-2-0-|-3-3-3-3-3-----|
B-|-2-2-2-2-2-|-3-3-3-3-3-|-3-3-3-3-3-|-3-3-3-3-3-----|
G-|-2-2-2-2-2-|-0-0-0-0-0-|-2-2-2-2-2-|-0-0-0-0-0-----|
D-|-2-2-2-2-2-|-----------|-----------|---------------|
A-|-----------|-----------|-----------|---------------|
E-|-----------|-----------|-----------|---------------|
e-|-5-5-5-5-5-|-3-3-3-3-3-}
B-|-2-2-2-2-2-|-3-3-3-3-3-|
G-|-2-2-2-2-2-|-0-0-0-0-0-|
D-|-2-2-2-2-2-|-----------|
A-|-----------|-----------|
E-|-----------|-----------|

Verse

You come around...
e-|-2-^--2---2-^--2-|-3-^--3--3-^--3---|
B-|-3-(--3---3-(--3-|-3-(--3--3-(--3---|
G-|-2--)-2---2--)-2-|-0--)-0--0--)-0---|
D-|-0-{--0---0-(--0-|-0-(--0--0-(--0---|                ----|------------------|--------------
A-|-----------------|------------------|
E-|-----------------|------------------|
e-|-2-^--2---2-^--2-|-5-^--5--5-^--5---|
B-|-3-(--3---3-(--3-|-2-(--2--2-(--2---|
G-|-2--)-2---2--)-2-|-2--)-2--2--)-2---|
D-|-0-(--0---0-(--0-|-2-(--2--2-(--2---|
A-|-----------------|------------------|
E-|-----------------|------------------|

Pre-chorus

Again you took it away...
e-|-8---8---8---8---x--|--3--3--3--3---x--------------|
B-|-8---8---8---8---x--|--3--3--3--3---x--------------|
G-|-9---9---9---9---x--|--4--4--4--4---x--------------|
D-|-10--10--10--10--x--|--5--5--5--5---x--------------|
A-|-10--10--10--10--x--|--5--5--5--5---x--------------|
E-|-8---8---8---8---x--|--3--3--3--3---x--------------|

Chorus

'cause I've been around...
e-|-2-2-2-2-0-|-3-3-3-3-3-|-5-5-5-5-5-|-3-3-3-3-3-----|
B-|-3-3-3-3-3-|-3-3-3-3-3-|-2-2-2-2-2-|-3-3-3-3-3-----|
G-|-2-2-2-2-2-|-0-0-0-0-0-|-2-2-2-2-2-|-0-0-0-0-0-----|
D-|-----------|-----------|-2-2-2-2-2-|---------------|
A-|-----------|-----------|-----------|---------------|
E-|-----------|-----------|-----------|---------------|
First time through the chorus is played softly in appergiated rhythm like the verse figure. Bridge uses same figure as verse. LYRICS You come around to see your boyfriend You come around to feel the pain It was yesterday he tried to use you But you still go through it Again you took it away Again you let yourself stay I've been around this lonely place lonely place before You find out he's been lying to you You find he had another girl Still you never stand up for yourself You never stand up to him He takes it away Again you let yourself stay Again you give it to him You sat it's the last time he does it again You got a choice to leave this place Your lonely place behind Be true to yourself now and let it go It's better than you think