Gorilla Biscuits - First Failure Chords

 
No chord
    
Standard guitar tuning:
E
A
D
G
B
E
No capo

Intro

E|--------------------------------|
B|--------------------------------|
G|----------7---------------------|
D|--5---7---7---------------------|
A|--5---7---5---------------------|
E|--3---5-------------------------|

Verse

E|--------------------------------|
B|--------------------------------|
G|--9---7-------------------------|
D|--9---7-----7-------------------|
A|--7---5-----7-------------------|
E|------------5-------------------|

Chorus

E|--------------------------------|
B|--------------------------------|
G|--4---7-------------------------|
D|--4---7------4------------------|
A|--2---5------4------------------|
E|-------------2------------------|
Intro, Verse, Chorus play an A, Chorus, Intro

Bridge

E|--------------------------------|
B|--------------------------------|
G|--4---7-------------------------|
D|--4---7-----7---4---------------|
A|--2---5-----7---4---------------|
E|------------5---2---------------|
p.m. Intro, Verse, , Intro, end on F#