Grateful Dead - Samson And Delilah Chords

 
         
         
         
         
         
3
2
4
3 fr
         
         
         
         
         
1
3
4
2
1
1
         
         
         
         
         
2
1
3
4
3 fr
         
         
         
         
         
X
X
3
2
1
1
5 fr
         
         
         
         
         
X
X
1
3
4
3
7 fr
         
         
         
         
         
X
4
3
1
2
1

10 fr
         
         
         
         
         
X
1
2
3
4
X
10 fr
         
         
         
         
         
X
1
3
3
3
1
12 fr
         
         
         
         
         
3
2
1
1
1
4
         
         
         
         
         
X
3
2
1
3 fr
         
         
         
         
         
X
1
2
3
4
1
8 fr
         
         
         
         
         
1
3
4
2
1
1
3 fr
         
         
         
         
         
X
1
X
3
4
1
5 fr
         
         
         
         
         
3
2
1
1
1
4
10 fr
         
         
         
         
         
X
X
1
3
4
3

12 fr
         
         
         
         
         
X
4
3
1
2
1
3 fr
         
         
         
         
         
X

F

variations
         
         
         
         
         
1
3
4
2
1
1
         
         
         
         
         
X
X
3
2
1
1
6 fr
         
         
         
         
         
X
4
3
1
2
1
4 fr
         
         
         
         
         
X
X
1
2
4
3
9 fr
         
         
         
         
         
X
1
3
3
3
1
11 fr
         
         
         
         
         
4
3
1
1
1
X

11 fr
         
         
         
         
         
3
2
1
1
1
4
         
         
         
         
         
X
X
1
3
2
2 fr
         
         
         
         
         
X
4
3
1
2
1
5 fr
         
         
         
         
         
X
1
2
3
4
1
5 fr
         
         
         
         
         
X
1
4
4
4
X
7 fr
         
         
         
         
         
4
3
1
1
1
X
7 fr
         
         
         
         
         
3
2
1
1
1
4

10 fr
         
         
         
         
         
1
3
4
2
1
1
12 fr
         
         
         
         
         
X
X
1
3
4
3
5 fr
         
         
         
         
         
X
X
No chord
Standard guitar tuning:
E
A
D
G
B
E
No capo
Three important chords
         Bmb5                     C+4+9                   C#mb5
  |---|---|---|---|---|   |---|---|---|---|---|   |---|---|---|---|---|
  |---|---|---|---|---|   |---|---|---|---|---|   |---|---|---|---|---|
| X | | | | | | | | | | | | | | | |
  |---|---|---|---|---|   |---|---|---|---|---|   |---|---|---|---|---|
| | X | X | | X | | | | | | | | | |
  |---|---|---|---|---|   |---|---|---|---|---|   |---|---|---|---|---|
| | | X | | | | X | X | | X | | | |
  |---|---|---|---|---|   |---|---|---|---|---|   |---|---|---|---|---|
| | | | | | | | | X | | | | X | X |
  |---|---|---|---|---|   |---|---|---|---|---|   |---|---|---|---|---|
| | | | | | | | | | | | | | | X | |
  |---|---|---|---|---|   |---|---|---|---|---|   |---|---|---|---|---|
  |---|---|---|---|---|   |---|---|---|---|---|   |---|---|---|---|---|
GIf I had my way, C Bmb5 C+4+9 C#mb5 F G I would tear this old buil ding down. GDelilah was a woman, she was Cfine and Gfair, GShe had lovely looks, and Dcoal black Ghair. GDelilah she gained old CSamson's Gmind. GWhen first he saw this woman, she Dlooked so Gfine. GDelilah she climbed up on CSamson's Gknee, GSaid, "Tell me where your strength lies Dif you pGlease." GAnd She spoke so kind, God knows, she Ctalked so Gfair, GSamson said, "Delilah, you cut Doff my Ghair. You can Gshave my head, Cclean as my Ghand GMy strength come's natural as Dany old Gman. GIf I Chad my Gway, G GIf I had my Dway, G GIf I had my way, C I would tear this old building down." You read about Samson, all from his birth, He was the strongest man that ever had lived on earth. One day when Samson was walking along, Looked down on the ground, he saw an old jawbone. He stretched out his arm, God knows, chains broke like thread, When he got to moving, ten thousand was dead.
Common

G C G

E----------13-----------------------------------------------| B----15-------15-----13--15p13-------13--15p13--12----------| G-------------------------------15--------------------------| D-----------------------------------------------------------| A-----------------------------------------------------------| E-----------------------------------------------------------|
     G                               D       G
E----------13-----------------------------------------------|
B----15-------15-----13--15p13------------------------------|
G-------------------------------15-----------12-------------|
D------------------------------------15--12-----------------|
A-----------------------------------------------------------|
E-----------------------------------------------------------|

Solo culmination

E-------15p13------15-----15p13------15---------------------|
B---15---------15----------------15-------------------------|
G-----------------------------------------------------------|
D-----------------------------------------------------------|
A-----------------------------------------------------------|
E-----------------------------------------------------------|
E---19--15--------------------------------------------------|
B-----------13^15\13------------------------13^15\13--------|
G---------------------15--12-------12-----------------12----|
D-----------------------------15-------12-------------------|
A-----------------------------------------------------------|
E-----------------------------------------------------------|

Common solo culmination

Now Samson and the lion, they got in attack, Samson he crawled up on the lion's back. You read about this lion, he killed a man with his paws, Samson got his hands up around that lion's jaws. And he ripped that beast, God knows he killed him dead. And the bees made honey in the lion's head.