Green Day - American Idiot Chords

Verse 1 Riff
Chorus Riff
 
         
         
         
         
         
1
3
4
2
1
1
5 fr
         
         
         
         
         
X
4
3
1
2
1
3 fr
         
         
         
         
         
X
X
1
2
4
3
         
         
         
         
         
X
X
3
2
1
1
8 fr
         
         
         
         
         
X
1
3
3
3
1
10 fr
         
         
         
         
         
4
3
1
1
1
X

10 fr
         
         
         
         
         
3
2
1
1
1
4

C

variations
4 fr
         
         
         
         
         
X
1
2
3
4
1
         
         
         
         
         
X
4
3
1
2
1
4 fr
         
         
         
         
         
X
1
4
4
4
X
6 fr
         
         
         
         
         
4
3
1
1
1
X
6 fr
         
         
         
         
         
3
2
1
1
1
4
9 fr
         
         
         
         
         
1
3
4
2
1
1

11 fr
         
         
         
         
         
X
X
1
3
4
3

A

variations
4 fr
         
         
         
         
         
1
3
4
2
1
1
4 fr
         
         
         
         
         
X
X
3
2
1
1
6 fr
         
         
         
         
         
X
X
1
2
4
3
         
         
         
         
         
3
2
1
1
1
4
8 fr
         
         
         
         
         
X
4
3
1
2
1
11 fr
         
         
         
         
         
X
1
2
3
4
X

11 fr
         
         
         
         
         
X
1
3
3
3
1

F

variations
         
         
         
         
         
1
3
4
2
1
1
         
         
         
         
         
X
X
3
2
1
1
6 fr
         
         
         
         
         
X
4
3
1
2
1
4 fr
         
         
         
         
         
X
X
1
2
4
3
9 fr
         
         
         
         
         
X
1
3
3
3
1
11 fr
         
         
         
         
         
4
3
1
1
1
X

11 fr
         
         
         
         
         
3
2
1
1
1
4

E

variations
3 fr
         
         
         
         
         
X
4
3
1
2
1
6 fr
         
         
         
         
         
X
1
2
3
4
1
         
         
         
         
         
X
X
1
2
4
3
3 fr
         
         
         
         
         
X
4
3
1
2
X
8 fr
         
         
         
         
         
4
3
1
1
1
X
8 fr
         
         
         
         
         
3
2
1
1
1
4

11 fr
         
         
         
         
         
1
3
4
2
1
1

B

variations
         
         
         
         
         
X
1
2
3
4
1
6 fr
         
         
         
         
         
1
3
4
2
1
1
         
         
         
         
         
X
1
4
4
4
X
         
         
         
         
         
X
1
X
3
4
1
3 fr
         
         
         
         
         
3
2
1
1
1
4
8 fr
         
         
         
         
         
X
X
1
3
4
3

10 fr
         
         
         
         
         
X
4
3
1
2
1
         
         
         
         
         
X
1
2
3
5 fr
         
         
         
         
         
1
3
4
2
1
1
2 fr
         
         
         
         
         
X
1
1
1
4
         
         
         
         
         
X
X
1
2
2 fr
         
         
         
         
         
3
2
1
1
1
4
7 fr
         
         
         
         
         
X
X
1
3
4
3

9 fr
         
         
         
         
         
X
4
3
1
2
1
12 fr
         
         
         
         
         
X
1
3
3
3
1
         
         
         
         
         
X
3
2
1
3 fr
         
         
         
         
         
X
1
2
3
4
1
8 fr
         
         
         
         
         
1
3
4
2
1
1
3 fr
         
         
         
         
         
X
1
X
3
4
1
5 fr
         
         
         
         
         
3
2
1
1
1
4
10 fr
         
         
         
         
         
X
X
1
3
4
3

12 fr
         
         
         
         
         
X
4
3
1
2
1
3 fr
         
         
         
         
         
X
         
         
         
         
         
3
2
4
3 fr
         
         
         
         
         
1
3
4
2
1
1
         
         
         
         
         
2
1
3
4
3 fr
         
         
         
         
         
X
X
3
2
1
1
5 fr
         
         
         
         
         
X
X
1
3
4
3
7 fr
         
         
         
         
         
X
4
3
1
2
1

10 fr
         
         
         
         
         
X
1
2
3
4
X
10 fr
         
         
         
         
         
X
1
3
3
3
1
12 fr
         
         
         
         
         
3
2
1
1
1
4
         
         
         
         
         
1
3
4
1
1
1
         
         
         
         
         
X
X
3
1
1
1
3 fr
         
         
         
         
         
X
X
1
3
4
2
8 fr
         
         
         
         
         
X
1
3
4
2
1
5 fr
         
         
         
         
         
X
4
3
1
2
X
         
         
         
         
         
X
X
1
3
2
2 fr
         
         
         
         
         
X
4
3
1
2
1
5 fr
         
         
         
         
         
X
1
2
3
4
1
5 fr
         
         
         
         
         
X
1
4
4
4
X
7 fr
         
         
         
         
         
4
3
1
1
1
X
7 fr
         
         
         
         
         
3
2
1
1
1
4

10 fr
         
         
         
         
         
1
3
4
2
1
1
12 fr
         
         
         
         
         
X
X
1
3
4
3
5 fr
         
         
         
         
         
X
X
         
         
         
         
         
2
3
1
4 fr
         
         
         
         
         
X
4
3
1
2
1
7 fr
         
         
         
         
         
X
1
4
4
4
X
2 fr
         
         
         
         
         
X
X
1
2
4
3
4 fr
         
         
         
         
         
4
3
1
2
1
7 fr
         
         
         
         
         
X
1
3
3
3
1

9 fr
         
         
         
         
         
4
3
1
1
1
X
9 fr
         
         
         
         
         
3
2
1
1
1
4
12 fr
         
         
         
         
         
1
3
4
2
1
1
4 fr
         
         
         
         
         
X

Fm

variations
         
         
         
         
         
1
3
4
1
1
1
4 fr
         
         
         
         
         
X
X
1
3
4
2
         
         
         
         
         
X
X
3
1
1
1
9 fr
         
         
         
         
         
X
1
3
4
2
1
6 fr
         
         
         
         
         
X
4
3
1
2
X
7 fr
         
         
         
         
         
1
3
4
2
1
1
         
         
         
         
         
X
2
1
X
3
         
         
         
         
         
X
1
4
4
4
X
         
         
         
         
         
X
1
3
3
3
1
4 fr
         
         
         
         
         
4
3
1
1
1
X
4 fr
         
         
         
         
         
3
2
1
1
1
4

9 fr
         
         
         
         
         
X
X
1
3
4
3
11 fr
         
         
         
         
         
X
4
3
1
2
1
         
         
         
         
         
X
1
3
4
2
1
7 fr
         
         
         
         
         
1
3
4
1
1
1
         
         
         
         
         
X
1
3
4
2
X
7 fr
         
         
         
         
         
X
X
3
1
1
1
9 fr
         
         
         
         
         
X
X
1
3
4
2
11 fr
         
         
         
         
         
X
4
3
1
2
X
         
         
         
         
         
X
X
2
3
1
5 fr
         
         
         
         
         
X
1
3
4
2
1
10 fr
         
         
         
         
         
X
X
1
1
1
5 fr
         
         
         
         
         
X
X
3
2
1
2 fr
         
         
         
         
         
X
4
3
1
2
X
10 fr
         
         
         
         
         
1
3
4
1
1
1

12 fr
         
         
         
         
         
X
X
1
3
4
2
         
         
         
         
         
1
1
X
X
X
2 fr
         
         
         
         
         
X
X
1
3
4
X
7 fr
         
         
         
         
         
X
1
3
4
X
X
         
         
         
         
         
X
X
X
7 fr
         
         
         
         
         
X
X
3 fr
         
         
         
         
         
X
1
3
4
2
1
8 fr
         
         
         
         
         
1
3
4
1
1
1
         
         
         
         
         
X
3
1
X
X
         
         
         
         
         
X
4
1
2
X
8 fr
         
         
         
         
         
X
X
3
1
1
1
10 fr
         
         
         
         
         
X
X
1
3
4
2

12 fr
         
         
         
         
         
X
4
3
1
2
X
         
         
         
         
         
2
3
3 fr
         
         
         
         
         
X
X
2
4
1
7 fr
         
         
         
         
         
X
1
3
4
2
1
2 fr
         
         
         
         
         
X
X
1
3
4
2
3 fr
         
         
         
         
         
X
3
2
4
1
4 fr
         
         
         
         
         
X
4
3
1
2
X

12 fr
         
         
         
         
         
1
3
4
1
1
1
No chord
Standard guitar tuning:
E
A
D
G
B
E
No capo
F                       F
e-----                  e-----
B-----                  B-----
G-----                  G--10-
D--3--                  D--10-
A--3--                  A--8--
E--1--                  E-----
means that wherever "F" occurs in the song, play it on the 6th string, and wherever "F(2)" occurs, play it on the 5th string. The reason for this seems obvious to me, but I kinda have to explain it because 99% of the internet is retarded: the purpose is each chord, "F" and "F(2)" are both technically of the fifth form F5 , the only difference being that F(2) is one octave higher than F. So in a song where there is an F played on the 6th string, then later, an F is played on the 5th string, the two must somehow be differentiated or else it will sound weird when the reader attempts to play it. Duh. Anyhow, I chose this method over tabbing the chords over and over throughout the song because it keeps things nice and neat. I also tried to place the chord changes over the lyrics as accurately as possible, but it's not precise. It shouldn't need to be anyhow; music is all vibes. Get a feel for the song and the chord changes should come naturally, as should the rhythm. Practice makes perfect! If you find any major errors or what-not, feel free to send me an e-mail. Chances are, I won't respond if you have a minor variation to a solo or a lyric. If you're good enough to hear what I can't, then you don't really need this file, do you? Leave me alone. If, on the other hand, there's some outrageous mistake, let me know. I'll be cool about it. So, that's it. Enjoy. And if you're in Phoenix, give me a shout; we'll party. Until next time, kiddies - rock on! Track List: 1. American Idiot 2. Jesus of Suburbia 3. Holiday 4. Boulevard of Broken Dreams 5. Are We the Waiting 6. St. Jimmy 7. Give Me Novocain 8. She's a Rebel 9. Extraordinary Girl 10. Letterbomb 11. Wake Me Up When September Ends 12. Homecoming 13. Whatsername --== American Idiot ==-- Chords Used:
C              A              F              E
e-----          e-----          e-----          e-----
G-----          G-----          G-----          G-----
B--6--          B-----          B-----          B--8--
D--6--          D--6--          D--4--          D--8--
A--4--          A--6--          A--4--          A--6--
E-----          E--4--          E--2--          E-----

Intro

A C F C A F

Verse 1

Don't wanna be an American idiot. A C F C A F Don't want a nation that under the new mediaA. C F C A And can you hear the sound of hysteria?A C F C A F The subliminal mindfuck America.A C F C A

Chorus

CWelcome to a new kind of tension. AAll across the alien nation. EEverything isn't meant to be Aokay. CTelevision dreams of tomorrow. AWe're not the ones who're meant to follow. EConvincing them to walk you.

A C F C A F

A C F C A

Verse 2

Well maybe I'm the faggot America.A C F C A F I'm not a part of a redneck agenda.A C F C A Now everybody do the propaganda.A C F C A F And sing along in the age of paranoia.A C F C A

Chorus

CWelcome to a new kind of tension. AAll across the alien nation. EEverything isn't meant to be Aokay. CTelevision dreams of tomorrow. AWe're not the ones who're meant to follow. EConvincing them to walk you.

A C F C A F

A C F C A

A C F C A F

A C F C A

Solo

E----------------------------------------------------------------------
B----------------------------------------------------------------------
G--10-10-10-10-10-10-8--6-----8-8-8-8--10-8--6--5--3-3-3-3h5-6-5\3-3---
D--x--x--x--x--x--x--x--x-----x-x-x-x--x--x--x--x----------------------
A--8--8--8--8--8--8--6--4-----6-6-6-6--8--6--4--3----------------------
E----------------------------------------------------------------------
E---------------------------8--------11--------
B--------9--------11------------------------9--
G--8--8-----8--8------8--8-----8--8------8-----
D----------------------------------------------
A----------------------------------------------
E----------------------------------------------
E--------------------------------------------------------------------------
B-----------------------------------------------------------------------9--
G--10-10-10-10-10-10-8--6-----8-8-8-8--10-8--6--5--3-3-3-3h5-6-5\3-3/8-----
D--x--x--x--x--x--x--x--x-----x-x-x-x--x--x--x--x--------------------------
A--8--8--8--8--8--8--6--4-----6-6-6-6--8--6--4--3--------------------------
E--------------------------------------------------------------------------

Bridge

A C F C A F

A C F C A

Verse 3

ADon't wanCna beF an AmCericaAn idiFot. AOne natiCon contrFolled Cby the Amedia. AInforCmatioFn natCion Aof hyFsteria. It's going out to idiot America.

Chorus

CWelcome to a new kind of tension. AAll across the alien nation. EEverything isn't meant to be Aokay. CTelevision dreams of tomorrow. AWe're not the ones who're meant to follow. EConvincing them to walk you.

Outro

A C F C A

A C F C A F

A C F C A

A C F C A F

A C F C A

--== Jesus of Suburbia ==-- Notes: This song is complicated yet simple; the chord structure is characteristically Green Day in that there are very few chords played in different patterns for the verse, pre-chorus, chorus, etc. Where it differs from their other songs, however, is its dramatic shifts in style and tone throughout. Incidentally, the song is nearly 10 minutes long, comparable in length to rock operas like "Stairway to Heaven" and "Bohemian Rhapsody." To date, this is Green Day's only rock opera (with the possible exception of "Homecoming," another track on this album). Consequently, I've broken it down into component parts, each part denoting a shift in style or tone; these are denoted by "PART" and then a roman numeral designating the part of the song. Chords Used:
C              B              A              A
e-----          e-----          e-----          e-----
G-----          G-----          G-----          B-----
B--6--          B-----          B-----          G--8--
D--6--          D--8--          D--6--          D--6--
A--4--          A--8--          A--6--          A-----
E-----          E--6--          E--4--          E-----
F              F               A               C
e-----          e-----          e-----          e-----
G-----          G-----          G-----          B-----
B-----          B-----          B-----          G--5--
D--4--          D--3--          D--7--          D--5--
A--4--          A--3--          A--7--          A--3--
E--2--          E--1--          E--5--          E-----
E
e-----
B-----
G--8--
D--8--
A--6--
E-----
PART I:

Verse 1

C

I'm the son of rage and love

B

The Jesus of suburbia FThe bible of none-of-the-above AOn a steady diet of...

C

Soda pop and Ritalin

B

No one ever died for my sins FIn hell, far as I can tell AAt least the ones I got away with

Chorus 1

And therFe's nothing wrong withA me This is Fhow I'm supposed to beA In a laFnd of make-belieAve I don't believe in me

C A F

Verse 2

C

Get my television fix

B

Sitting on my crucifix FA living room on my private womb AWhile the moms and brads are away

C

So fall in love and fall in debt

B

To alcohol and cigarettes FAnd Mary-Jane, to keep me insane ADoing someone else's cocaine

Chorus 1

And therFe's nothing wrong withA me This is Fhow I'm supposed to beA In a laFnd of make-belieAve I don't believe in me

C A F

Bridge 1

C B F A

C F B A F

A

PART II:

Verse 3

At the cCenter of the Earth in the Aparking lot Of the BSeven-Eleven where AI was taught FThe motto was just a lAie It says Chome is where your heart is, butA what a shame Cuz' evBeryone's heart doesAn't beat the same FIt's beating out of Atime

Chorus 2

BCity Aof the dead CAt the end of aFnother lost highway BSigns misleAading to nFowhere BCity Aof the damned CLost children withF dirty faces today BNo one realAly seems to Fcare

Verse 4

I read tChe graffiti on the bathrooAm stall Like thBe holy scriptures of a shAopping mall FAnd so it seemed to coAnfess It didn'Ct say much but it only conAfirmed That the Bcenter of the Earth is the Aend of the world FAnd I can really care Aless.

Chorus 2

BCity Aof the dead CAt the end of aFnother lost highway BSigns misleAading to nFowhere BCity Aof the damned CLost children wFith dirty faces today BNo one realAly seems to Fcare PART III:

Solo

   A       C       A       F E C G        F E C E    A
E-----------------------------------------------------------------
B-----------------------------6--------7--7--7--6--------------9--
G-----------6--6--6--------------8--6--------------8--6--8--8-----
D--6--6--6-----------6--6--6--------------------------------------
A-----------------------------------------------------------------
E-----------------------------------------------------------------

Chorus 3

AI don't care Cif you don't | Ab Eb | Repeat this part I don't care if you don't | 4 times FI don't care Cif you don't Acare | BI donA't care...

Bridge 2

C A A

Verse 5

Everyone's so full of shitA A Born and raised by hypocritesA A Hearts recycled but never saAved A From the cradle, to the graveA A We are the kids of War and PeaceA A From Anaheim to the Middle EastA A We are the stories and disciples ofA A The Jesus of SuburbiaA A

Pre-chorus 3

FLand of make-AbelieveC A FAnd it don't Abelieve in Cme. A FLand of make-AbelieveC A FAnd I don't bAelieve. C A

Chorus 3

FAnd AI don't Ccare. FI doAn't caCre. FI doAn't caCre. FI doAn't caCre. FI doAn't caCre.

C A

PART IV:

Verse 6

ADearly beloved are you lCistening CI can't remember a word Athat you were sayinEg AAre we demented or am I Cdisturbed CThe space that's in betwAeen insane and iEnsecure

A C C A E

AOh therapy can you please fCill the void CAm I retarded or am AI just overjoyEed ANobody's perfect and I Cstand accused CFor lack of a better word and Athat's my best excuEse (sigh)

A C C A E

PART V:

Verse 7

(kinda hard to express the rhythm here; just repeat the little verse intro)

A F C

ATo live and Fnot Cto bAreathFe C Ais to die inF traCgedyA F C ATo run, toF runC awaAy F C ATo find whatF youC belAieve F C

Chorus 4

(again, kinda hard to express rhythm; each chord is strummed only once and on the beat) CAndA I C A C A EleaAve EbehAindE A CThiAs hCurrAicaCne A Eof AfucEkinAg lEiesA

Verse 8

AI lost my FfaitCh toA thisF C AThis town, tFhat Cdon'tA exisFt C ASo I run, FI ruCn awAay F C AThe light oFf maCsochAist F C

Chorus 4

CAndA I C A C A EleaAve EbehAindE A CThiAs hCurrAicaCne A Eof AfucEkinAg lEiesA CAndA I C A C A EwalAkedE thAis ElinAe COn AmilClioAn aCnd oAne EfucAkinEg tAimeEs A But not this time

Solo 2

A F C

E---------------------------------------
B---------------------------------------
G--6--8--6--10--6--8--6--5--3--6--3--5--   (repeat 2x)
D---------------------------------------
A---------------------------------------
E---------------------------------------
E--------------------------------------------------------------------
B-----7p6-----9p6-----7p6-----9p6-----9p8-----11p8-----9p8-----11p8--
G--6-------6-------6-------6-------8-------8--------8-------8--------
D--------------------------------------------------------------------
A--------------------------------------------------------------------
E--------------------------------------------------------------------
PART VI:

Verse 9

I don't feel any shame, I won't apologize When there ain't nowhere you can go Running away from pain when you've been victimized Tales from another broken...home

Outro

AYou'rFe leavinCg AYou'rFe leavinCg AYou'rFe leavinCg AYou'rFe leavinCg home.

A F C

A

--== Holiday ==-- Chords Used:
A              C               F               E
e-----          e-----          e-----          e-----
G-----          G-----          G-----          B-----
B-----          B--5--          B--10-          G--8--
D--6--          D--5--          D--10-          D--8--
A--6--          A--3--          A--8--          A--6--
E--4--          E-----          E-----          E-----
B              C              F
e-----          e-----          e-----
G-----          G-----          G-----
B-----          B--6--          B-----
D--8--          D--6--          D--3--
A--8--          A--4--          A--3--
E--6--          E-----          E--1--

Intro

   Fm         C         A         E
e-------------------------------------------
B--9---9---x-------------13--13--x----------
G--10--10--x--10--10--x--13--13--x--12--12--  (repeat 4x)
D-------------11--11--x-------------13--13--
A-------------------------------------------
E-------------------------------------------
FSay Chey, Acha..E.

Verse 1

FHear the Csound of the Afalling Erain FComing doCwn like an AArmagCeddon Fflame FThe shameC the ones whoA died wiEthout a Cname FHear the Cdogs howling Aout of kEey FTo a hymnC called "FaAith aCnd MisFery" FI plead, Cthe company tAhat lostE the warC today

Chorus

FI beg to dream aCnd differ from thAe hollow lies E FThis is the dawnCing of the rest oAf our lives C On holiday.
   Fm         C         A         E
e-------------------------------------------
B--9---9---x-------------13--13--x----------
G--10--10--x--10--10--x--13--13--x--12--12--  (repeat 2x)
D-------------11--11--x-------------13--13--
A-------------------------------------------
E-------------------------------------------

Verse 2

FHear the Cdrum poundingA out of Etime FAnother pCrotester hasA crossCed the Fline FTo finCd the mAoney's Eon the oCther side FCan I gCet anothAer amen?E Amen! FThere's a Cflag wrapped aroAund a score Cof mFen FA gaCg, a plAastic baEg on a mConument

Chorus

FI beg to dream aCnd differ from thAe hollow lies E FThis is the dawnCing of the rest oAf our lives C On holiday.

Bridge

F A C B E C

F A E C F

F A C B E C

F A E C F

Solo

E---------------------------------------------8-----8--
B--6--6--6--8/9----------------8--5-----5--6-----6-----
G----------------8--6\5--5--5--------5-----------------
D------------------------------------------------------
A------------------------------------------------------
E------------------------------------------------------
E---------------------------------8--8--12--12~~--13~~--
B--6--6--6--8/9----------------8~-----------------------
G----------------8--6\5--5--5---------------------------
D-------------------------------------------------------
A-------------------------------------------------------
E-------------------------------------------------------
**The representative from California has the floor!**

Verse 3

Sieg Heil to the President-Gas-Man "Bombs away!" is your punishment! Pulverize the Eiffel Towers Who criticize your government Bang! Bang! goes a broken classic Kill all the fags that don't agree Triumph by fire Setting fires is not a way that's meant for me

E C Fm

Bridge 2

BJust cause C BJust cause C Because we're on holiday

Chorus

FI beg to dream aCnd differ from thAe hollow lies E FThis is the dawnCing of the rest oAf our lives C FI beg to dream aCnd differ from thAe hollow lies E FThis is the dawnCing of the rest oAf our lives C This is our lives on holiday....

Outro

F C A E

F C E C Fm

F

--== Boulevard of Broken Dreams ==-- Chords Used:
Fm              A              E              C               D
e--1--          e--4--          e--6--          e-----          e-----
G--1--          G--4--          G--8--          B-----          B-----
B--1--          B--5--          B--8--          G--5--          G-----
D--3--          D--6--          D--8--          D--5--          D--7--
A--3--          A--6--          A--6--          A--3--          A--5--
E--1--          E--4--          E-----          E-----          E-----
B              F               E               C
e--6--          e-----          e-----          e-----
G--6--          G-----          B-----          B-----
B--7--          B-----          G-----          G--6--
D--8--          D--3--          D--9--          D--6--
A--8--          A--3--          A--7--          A--4--
E--6--          E--1--          E-----          E-----

Intro

D Fm A E B

Verse 1

FmI walk a lonAely road The Eonly one that I have eBver known FmDon't know wAere it goes But Eit's home to me and I Bwalk alone
   Fm   A     E   B
E--3/4--6/8\6--3--4--
B--------------------
G--------------------
D--------------------
A--------------------
E--------------------
FmI walk this Aempty street On tEhe Boulevard of brokenB dreams FmWere the citAy sleeps And EI'm the only one and IB walk alone

Pre-chorus

   Fm   A     E   B     Fm   A     E   B
E--3/4--6/8\6--3--4---------3/4--6/8\6--3--4--
B---------------------------------------------
G---------------------------------------------
D---------------------------------------------
A---------------------------------------------
E---------------------------------------------
I walk alone I walk alone, I walk alone and I walk a-

Chorus

CMy shadoAws the onBly one that waFlks beside me CMy shallAow heartsB the only thinFg that's beating CSometimeAs I wish Bsomeone out thFere will find me C'Till thAen I'll wCalk alone FmAh..Aah..E B

Verse 2

FmI'm walking Adown the line EThat divides me someBwhere in my mind FmOn the borAder line oEf the edge And wBhere I walk alone
   Fm   A     E   B
E--3/4--6/8\6--3--4--
B--------------------
G--------------------
D--------------------
A--------------------
E--------------------
FmRead betweenA the lines EWhat's fucked up andB everything's alright FmCheck my vAital signs to kEnow I'm still Balive And I walk alone

Pre-chorus

   Fm   A     E   B     Fm   A     E   B
E---------------------------------------------
B--3/4--6/8\6--3--4---------3/4--6/8\6--3--4--
G---------------------------------------------
D---------------------------------------------
A---------------------------------------------
E---------------------------------------------
I walk alone I walk alone, I walk alone and I walk a-

Chorus

CMy shadoAws the onBly one that waFlks beside me CMy shallAow heartsB the only thinFg that's beating CSometimeAs I wish Bsomeone out thFere will find me C'Till thAen I'll wCalk alone FmAh..Aah..E B I walk alone and I walk a-

Solo

E--------------------8~-------------------------8~---------------|
B----------6-6--8-9~----11~-8-9~~-----6-6--8-9~----11~-8-9~~-----|
G----------------------------------------------------------------|
D----------------------------------------------------------------|
A--12\5p0--------------------------------------------------------|
E----------------------------------------------------------------|
E------------8~-------------------------8~---------------|
B--6-6--8-9~----11~-8-9~~-----6-6--8-9~----11/13--11-13~~|
G--------------------------------------------------------|
D--------------------------------------------------------|
A--------------------------------------------------------|
E--------------------------------------------------------|

Verse 3

FmI walk this Aempty street On tEhe Boulevard of brokenB dreams FmWere the citAy sleeps And EI'm the only one and IB walk alone

Chorus

CMy shadoAws the onBly one that waFlks beside me CMy shallAow heartsB the only thinFg that's beating CSometimeAs I wish Bsomeone out thFere will find me C'Till thAen I'll wCalk alone

Outro

   F       C      E      D       A      E
E--------------------------------------------------|
B--------------------------------------------------|
G--------------------------------------------------|  (repeat 3x)
D--------------------------------------------------|
A----------4--4-4--6--6-6--5--5-5------------------|
E--1--1-1--------------------------4--4-4--0--0-0--|
   F       C      E      D       A   E
E--------------------------------------------------|
B--------------------------------------------------|
G--------------------------------------------------|
D----------------------------------5-5--2-2--------|
A----------4--4-4--6--6-6--5--5-5--5-5--2-2--------|
E--1--1-1--------------------------4-4--0-0--------|
--== Are We The Waiting? ==-- Chords Used:
A               D               D                       Fm             E
e--5--          e--5--          e-----          e--9--          e--7--
G--5--          G--7--          G--7--          G--10-          B--9--
B--6--          B--7--          B--7--          B--11-          G--9--
D--7--          D--7--          D--7--          D--11-          D--9--
A--7--          A--5--          A--5--          A--9--          A--7--
E--5--          E-----          E-----          E-----          E-----
NOTES: This song makes use of a particular riff, introduced at the beginning. This pattern is played over the chords being strummed in the background. So, when the rhythm guitar strums the "A" chord, the lead guitar plays this riff over A, when the background guitar plays "D", the pattern stays the same, but is then played over "D". This pattern occurs consistently throughout the song. I'll tab out the pattern over each chord once; after that, I'll assume the reader knows the pattern

And is playing it over the transcribed chords

)

Intro

   A                                          D
E------------------------------------------------------2--------------------2-----------|
B-----------2---------------------2-----------------3-----3-----3--------3-----3-----3--|
G--------2-----2-----2---------2-----2-----2-----2-----------2--------2-----------2-----|
D-----2-----------2---------2-----------2-----0--------------------0--------------------|
A--0---------------------0--------------------------------------------------------------|
E---------------------------------------------------------------------------------------|

Verse 1

Con

AStarry nights, city lights Coming Ddown over me ASkyscrapers and stargazers In my hDead AAre we we are, are we we are the Dwaiting unknown

F E

   F                         E                      D
E----------------------------------------------------------------------------------------------|
B-------------10-----------------------9--9--9\7--7-----------7--------------------7-----------|
G---------11------11------11--------9--------9\7--7--------7-----7-----7--------7-----7-----7--|
D-----11--------------11---------9----------------------7-----------7--------7-----------7-----|
A--9--------------------------7----------------------5--------------------5--------------------
E----------------------------------------------------------------------------------------------|
This dirty town was burning down in my dreams Lost and found city bound in my dreams

Chorus

DAnd screaming AAre we we are, Are we we are the Dwaiting... DAnd screaming AAre we we are, Are we we are the Dwaiting...

Verse 2

AForget me nots, second thoughts Live in Disolation AHeads or tails and fairytales in my Dmind AAre we we are, Are we we are the Dwaiting unknown FThe rage and love, the Estory of my Dlife FThe Jesus of subEurbia is a lDie

Chorus

DAnd screaming AAre we we are, Are we we are the Dwaiting... DAnd screaming AAre we we are, Are we we are the Dwaiting...

Outro

AAre we we are, Are we we are the Dwaiting... DAnd screaming AAre we we are, Are we we are the Dwaiting...unknown AAre we we are, Are we we are the Dwaiting...unknown --== St. Jimmy ==-- Chords Used:
A               E               E              C               G
e-----          e-----          e-----          e-----          e-----
G-----          G-----          G-----          B-----          B-----
B-----          B--9--          B--8--          G--5--          G-----
D--7--          D--9--          D--8--          D--5--          D--5--
A--7--          A--7--          A--6--          A--3--          A--5--
E--5--          E-----          E-----          E-----          E--3--
A                       E                       B               D
e-----          e-----          e-----          e-----
G-----          G-----          G-----          B-----
B--14-          B--9--          B-----          G--7--
D--14-          D--9--          D--9--          D--7--
A--12-          A--7--          A--9--          A--5--
E-----          E--0--          E--7--          E-----

Intro

A D

Verse 1

ASt. Jimmy's comin' down across the alleyway D AUp on the boulevard like a zip code on paradeD ALight on the silhDouette AHe's insubordinatDe AComing at you on Daccount of EwondeDr 1 2 3 4

A D E A

Verse 2

AMy name is Jimmy and yoDu better not Ewear it Aout ASuicide commando that yDour momma talEked abouAt AKing of the forty thievDes and I'm heEre to reApresent AThat needle in the veinD of the estabElishmentA

Chorus

DI'm the patron saint of the Adenial With an Dangel face and a tEaste for suAicidal

A D E A

A D E A

Verse 3

ACigarettes and ramen anDd a little baEg to selAl AI am the son of a bitchD and Edgar AlElen Poe A ARaised in the city in tDhe hail of liEghts A ABut ain't it worth it tDhat we've beeEn victimAized

Chorus

DI'm the patron saint of the Adenial With an Dangel face and a tEaste for suAicidal

Bridge

A D A D E

You talkin' to me? I'll give you something to cry about.

A E C E

ST. JIMMY

A D E A

A D E

Solo

E--------------------------------12--|
B--5--5\3--3--3/8--8--7--10--10------|
G------------------------------------|
D------------------------------------|
A------------------------------------|
E------------------------------------|

Verse 4

AMy name is St. Jimmy I'm a Dson of a gun I am the oGne that's runaway Dout of tAown now AA teenage assassin executinDg some fun In the cGult of the lDife of cArime AI really hate to say it butD I told you so So shut your Gmouth before I shoDot you dAown old boy AWelcome to the club and givDe me some blood And the resGident leaDder at the lAost and found

Outro

AIt's comeDdy andE tragedy A AIt's St. JiDmmy EAnd that's my nameeAeeeee. ... and don't wear it outA! --== Give Me Novocain ==-- Chords Used:
A               Fm             Bm
e--5--          e--9--          e--2--
G--5--          G--10-          G--3--
B--6--          B--11-          B--4--
D--7--          D--11-          D--4--
A--7--          A--9--          A--2--
E--5--          E-----          E-----
E               F              D
e--0--          e-----          e-----
G--0--          G-----          B-----
B--1--          B-----          G--7--
D--2--          D--4--          D--7--
A--2--          A--4--          A--5--
E--0--          E--2--          E-----

Intro

A Fm Bm E

Verse 1

ATake away the sensation Fminside BmBittersweet migraine in my Ehead AIt's like a throbbing toothache of theFm mind BmI can't take this feeling anymEore

Chorus

DDrain the pressure from the swellAing, DThe sensation's overwhelmiAng, DGive me a kiss goodnight and Feverything will be alright ATell me that I won't feel a Ething So give me Novocain

A Fm Bm E

Verse 2

AOut of body and out of mFmind BmKiss the demons out of my dEreams AI get the funny feeling, that's aFmlright BmJimmy says it's better than Eair, I'll tell you why

Chorus

DDrain the pressure from the swellAing, DThe sensation's overwhelmiAng, DGive me a kiss goodnight and Feverything will be alright ATell me that I won't feel a Ething So give me ANovocain

Bridge

AOh Novocain ...

Solo

   F                         A
E-----------------------------------------9-----------|
B--------7-7h8-8-9-9--9-8-7---10----10------10----10--|
G-----6--------------------------11----11------11-----|  (repeat 3x)
D--7--------------------------------------------------|
A-----------------------------------------------------|
E-----------------------------------------------------|
   Bm                          E
E------------10----10-------------------------------------------------------|
B---------12----12----12------9-9-9-9--10-10-10-10-12-12-12-12-12-12-12-12--|
G--11h12-----------------12---9-9-9-9--9--9--9--9--9--9--9--9--9--9--9--9---|
D---------------------------------------------------------------------------|
A---------------------------------------------------------------------------|
E---------------------------------------------------------------------------|

Chorus

DDrain the pressure from the swellAing, DThe sensation's overwhelmiAng, DGive me a kiss goodnight and Feverything will be alright ATell me Jimmy that I won't feel a Ething So give me Novocain

Outro

A Fm Bm E A

--== She's A Rebel ==-- Chords Used:
A               B               C               G
e-----          e-----          e-----          e-----
G-----          G-----          G-----          B-----
B-----          B-----          B--5--          G-----
D--7--          D--9--          D--5--          D--5--
A--7--          A--9--          A--3--          A--5--
E--5--          E--7--          E-----          E--3--
D               E               C                       G
e-----          e-----          e-----          e-----
G-----          G-----          G--8--          B-----
B--7--          B--9--          B--9--          G--12-
D--7--          D--9--          D--10-          D--12-
A--5--          A--7--          A-----          A--10-
E-----          E-----          E-----          E-----

Verse 1

GShe's a rebel GShe's a saint GShe's assault of the Dearth And she'sC dangerous GShe's a rebel GVigilante GMissing link on the Dbrink Of dCestruction

Verse 2

GFrom CChicago Gto ToCronto GShe's the oCne that they DCall 'ol wChatsername GShe's the sCymbol ofG resistaCnce GAnd she's hColding on my DHeart like a Chand grenade

G C G C G C D C

Verse 3

GIs she Cdreaming GWhat I'm Cthinking GIs she the Cmother of all Dbombs Gonna Cdetonate GIs she Ctrouble GLike I'm Ctrouble GMake it a dCouble twist ofD fate Or a Cmelody that

Chorus

EShe sings of Brevolution The Cdawning of our Glives EShe brings this BliberatiCon That GI just can't definDe BWell nothAing comes Cto mind
E---------------|
B--/8--8--------|
G--/7--7--7--7--|
D---------7--7--|
A---------5--5--|
E---------------|

Bridge

   G      C      G      C      G      C      D      C
E----------------------------------------------------------
B--8--8-8-8--8-8-8--8-8-8--8-8-8--8-8-8--8-8-7-7-8-7-10-8--
G--7--7-7-7--7-7-7--7-7-7--7-7-7--7-7-7--7-7-7-7-7-7-7--7--    (repeat 2x)
D----------------------------------------------------------
A----------------------------------------------------------
E----------------------------------------------------------

Chorus

EShe sings of Brevolution The Cdawning of our Glives EShe brings this BliberatiCon That GI just can't definDe BWell nothAing comes Cto mind
E---------------|
B--/8--8--------|
G--/7--7--7--7--|
D---------7--7--|
A---------5--5--|
E---------------|

Verse 4

GShe's a rebel GShe's a saint GShe's assault of the Dearth And she'sC dangerous GShe's a rebel GVigilante GMissing link on the bDrink Of dCestruction

Verse 5

GShe's a Crebel GShe's a Csaint GShe's assCault of the eDarth And she'sC dangerous GShe's a Crebel GVigilantCe GMissing lCink on the brDink Of dCestruction

Outro

GShe's a Crebel GShe's a Crebel GShe's a Crebel DAnd she's daCngerous GShe's a Crebel GShe's a Crebel GShe's a Crebel DAnd she's daCngerous

G

--== Extraordinary Girl ==-- Chords Used:
A               D               F              G
e-----          e-----          e-----          e-----
G-----          G--7--          G-----          B-----
B-----          B--7--          B-----          G-----
D--7--          D--7--          D--4--          D--5--
A--7--          A--5--          A--4--          A--5--
E--5--          E-----          E--2--          E--3--
E               Dm              F
e-----          e-----          e-----
G-----          G--6--          G-----
B--9--          B--7--          B--10-
D--9--          D--7--          D--10-
A--7--          A--5--          A--9--
E-----          E-----          E-----

Intro

E---------------------------|                       E-----------|
B---------------------------|                       B-----------|
G--9~~-7-9-10-10~~-12-10-9--|   (play 2x,then):     G--7h9p6~~--|
D---------------------------|                       D-----------|
A---------------------------|                       A-----------|
E---------------------------|                       E-----------|
   A        D               A        D
E----------------------------------------------------|
B----------------------------------------------------|
G--9-9--7-9-10-10~~--12-10--9-9--7-9-10-10~~--12-10--|
D----------------------------------------------------|
A----------------------------------------------------|
E----------------------------------------------------|

Verse 1

AShe's an DExtraordinary Agirl Ain an ordiDnary woArld And she Gcan't seem to get Aaway
E-------------------------|
B-------------------------|
G--6-6-4-6-6-4-6-7-6-4-6--|
D-------------------------|
A-------------------------|
E-------------------------|

Verse 2

Guitar 1:
    A        D               A        D               A        G       A
E|--------------------------------------------------------------------------------------------|
B|--------------------------------------------------------------------------------------------|
G|-----------7------------------------7-------------------------------------------------------|
D|--7--------7---------------7--------7---------------7--------5-------7----------------------|
A|--7--------5---------------7--------5---------------7--------5-------7----------------------|
E|--5------------------------5------------------------5--------3-------5----------------------|
| Guitar 2: |
E|--------------------------------------------------------------------------------------------|
B|--------------------------------------------------------------------------------------------|
G|--9-9--7-9-10-10~~--12-10--9-9--7-9-10-10~~--12-10--9-9--7-9-7-7-9-7-6-6-4-6-6-4-6-7-6-4-6--|
D|--------------------------------------------------------------------------------------------|
A|--------------------------------------------------------------------------------------------|
E|--------------------------------------------------------------------------------------------|
He Lacks the courage in his mind Like a child left behind Like a pet left in the rain

Chorus

FShe's all aloDne againE D FWiping the tears Dfrom her eEyesD DSome days she fEeels like dying DShe gets so Dmsick of crying
   A        D               A        D
E----------------------------------------------------|
B----------------------------------------------------|
G--9-9--7-9-10-10~~--12-10--9-9--7-9-10-10~~--12-10--|
D----------------------------------------------------|
A----------------------------------------------------|
E----------------------------------------------------|

Verse 3

AShe sees the mDirror of herAself AAnd image sDhe wants tAo sell To anGyone willing to bAuy
E-------------------------|
B-------------------------|
G--6-6-4-6-6-4-6-7-6-4-6--|
D-------------------------|
A-------------------------|
E-------------------------|

Verse 4

Guitar 1:
    A        D               A        D               A        G       A
E|--------------------------------------------------------------------------------------------|
B|--------------------------------------------------------------------------------------------|
G|-----------7------------------------7-------------------------------------------------------|
D|--7--------7---------------7--------7---------------7--------5-------7----------------------|
A|--7--------5---------------7--------5---------------7--------5-------7----------------------|
E|--5------------------------5------------------------5--------3-------5----------------------|
| Guitar 2: |
E|--------------------------------------------------------------------------------------------|
B|--------------------------------------------------------------------------------------------|
G|--9-9--7-9-10-10~~--12-10--9-9--7-9-10-10~~--12-10--9-9--7-9-7-7-9-7-6-6-4-6-6-4-6-7-6-4-6--|
D|--------------------------------------------------------------------------------------------|
A|--------------------------------------------------------------------------------------------|
E|--------------------------------------------------------------------------------------------|
He steals the image in her kiss From her heart's apocalypse From the one called whatsername

Chorus

FShe's all aloDne againE D FWiping the tears fErom her Deyes E D DSome days she fEeels like dying DShe gets so Dmsick of crying

Solo

Guitar 1:
    A        D               A        D               A        G       A
E|--------------------------------------------------------------------------------------------|
B|--------------------------------------------------------------------------------------------|
G|-----------7------------------------7-------------------------------------------------------|
D|--7--------7---------------7--------7---------------7--------5-------7----------------------|
A|--7--------5---------------7--------5---------------7--------5-------7----------------------|
E|--5------------------------5------------------------5--------3-------5----------------------|
| Guitar 2: |
E|--------------------------------------------------------------------------------------------|
B|--------------------------------------------------------------------------------------------|
G|--9-9--7-9-10-10~~--12-10--9-9--7-9-10-10~~--12-10--9-9--7-9-7-7-9-7-6-6-4-6-6-4-6-7-6-4-6--|
D|--------------------------------------------------------------------------------------------|
A|--------------------------------------------------------------------------------------------|
E|--------------------------------------------------------------------------------------------|
Guitar 1:
    A        D               A        D               A        G       A
E|--------------------------------------------------------------------------------------------|
B|--------------------------------------------------------------------------------------------|
G|-----------7------------------------7-------------------------------------------------------|
D|--7--------7---------------7--------7---------------7--------5-------7----------------------|
A|--7--------5---------------7--------5---------------7--------5-------7----------------------|
E|--5------------------------5------------------------5--------3-------5----------------------|
| Guitar 2: |
E|--------------------------------------------------------------------------------------------|
B|--------------------------------------------------------------------------------------------|
G|--9-9--7-9-10-10~~--12-10--9-9--7-9-10-10~~--12-10--9-9--7-9-7-7-9-7-6-6-4-6-6-4-6-7-6-4-6--|
D|--------------------------------------------------------------------------------------------|
A|--------------------------------------------------------------------------------------------|
E|--------------------------------------------------------------------------------------------|

Chorus

FShe's all aloDne againE D FWiping the tears fErom her Deyes E D DSome days she fEeels like dying DSome days it's Enot worth trying DNow that they've Epulled the fun in DShe gets so Dmsick of crying

Outro

Guitar 1:
    A        D               A        D
E|----------------------------------------------------| |
B|----------------------------------------------------| |
G|-----------7------------------------7---------------|o|
D|--7--------7---------------7--------7---------------|o|
A|--7--------5---------------7--------5---------------| |
E|--5------------------------5------------------------| |
| Guitar 2: | |
E|----------------------------------------------------| |
B|----------------------------------------------------| |
G|--9-9--7-9-10-10~~--12-10--9-9--7-9-10-10~~--12-10--|o|
D|----------------------------------------------------|o|
A|----------------------------------------------------| |
E|----------------------------------------------------| |
She's An Extraordinary girl An Extraordinary girl An Extraordinary girl An Extraordinary girl
   A
E---------------------------|                       E-----------|
B---------------------------|                       B-----------|
G--9~~-7-9-10-10~~-12-10-9--|   (play 2x,then):     G--7h9p6~~--|
D---------------------------|                       D-----------|
A---------------------------|                       A-----------|
E---------------------------|                       E-----------|
--== Letterbomb ==-- Chords Used:
A               B               C               E               E
e-----          e-----          e-----          e-----          e-----
G-----          G-----          G-----          B-----          B-----
B--2--          B--4--          B--5--          G--9--          G--9--
D--2--          D--4--          D--5--          D-----          D--9--
A--0--          A--2--          A--3--          A--7--          A--7--
E-----          E-----          E-----          E-----          E-----
A              E               C              E
e-----          e-----          e-----          e-----
G-----          G-----          G-----          B-----
B-----          B-----          B--6--          G--8--
D--6--          D--2--          D--6--          D-----
A--6--          A--2--          A--4--          A--6--
E--4--          E--0--          E-----          E-----

Intro

Nobody likes you... Everyone left you... They're all out without you... Having fun...

E E E

E A C A

Verse 1

EWhere have all the Abastards gone? The uFnderbelly's Aaccidental hiEgh The Adummy failed the Ccrash test CollAecting unemploymeCnt checks AYou're fucking only along Ffor the riBde E B EWhere have all the Ariots gone? As yoFur city's moAdel gets pulverEized WhatA's in love is nowC in debt On yAour birth certifiCcate ASo strike the fucking matcFh to lightB thEis Bfuse

B E B

Pre-chorus

AThe television's an obstructionisEt A AAnd you don't even know that you Eexist BStand still wish to dieA B BYou better run for your fucAking lBife

Chorus

EIt's not over 'tilBl you're undergroAund EIt's not hope befoBre it's too late A EIt's cities burnin' B AIt's not my bCurden EIt's not hope befoBre it's too late A FThere's nothing lAeft to analyze

Solo

   E
e|-----------------------------------|
B|-----------------------------------|

G|-9999999999999999-9999999999999999-|

D|-----------------------------------|

A|-7777777777777777-7777777777777777-|

E|-----------------------------------|
  Guitar 1:

E

e|--------------------------------------------------------------------------| B|--------------------------------------------------------------------------| G|-9999999999999999--8888888888888888-999888-4x666-888-9998889999-----------| D|--------------------------------------------------------------------------| A|-7777777777777777--6666666666666666-777666-2x444-666-7776667777-----------| E|--------------------------------------------------------------------------|
|Guitar 2: |
E|--------------------------------------------------------------------------|
B|------9-----9---9------9-----9---9------9-----9---9-----10-----10---10-9--|
G|--9-9---9-9---9----8-8---8-8---8----9-9---9-9---9---9-9----9-9----9-------|
D|--------------------------------------------------------------------------|
A|--------------------------------------------------------------------------|
E|--------------------------------------------------------------------------|
Where will all the martyrs go when the virus cures itself? And where will we all go when it's too late?
    E               A              C        A
e|------------------------------------------------------|
B|------------------------------------------------------|
G|----------------------------------6-------------------|
D|--2---------------6---------------6---------7---------|
A|--2---------------6---------------4---------7---------|
E|--0---------------4-------------------------5---------|
Guitar 1:
    E5              A                   E
e|-----------------------------------------------------------------------------|
B|-----------------------------------------------------------------------------|
G|---------------------------------------(9999888844448888-9999888844444444)---|
D|--2---------------6---------------------xxxxxxxxxxxxxxxx-xxxxxxxxxxxxxxxx----|
A|--2---------------6---------------------7777666622226666-7777666622222222----|
E|--0---------------4----------------------------------------------------------|
|Guitar 2: |
e|-----------------------------------------------------------------------------|
B|-----------------------------------------------------------------------------|
G|-9---9---9---9---9--8-8-8-8-9-8-8-8-6-4--------------------------------------|
D|---9---9---9---9-------------------------------------------------------------|
A|-----------------------------------------------------------------------------|
E|-----------------------------------------------------------------------------|
And don't look back

Pre-chorus

BYou're not the Jesus of SuburbiaA B BThe St. Jimmy's opinion oAf AYour father's rage and your moEtheBr's love BThat's made the idiot AEmerica

Chorus

EIt's not over 'tilBl you're undergroAund EIt's not hope befoBre it's too late A EIt's cities burnin' B AIt's not my bCurden EIt's not hope befoBre it's too late A

Outro

EShe said I can't take thisA place I'm Cleaving it Abehind EWell she said I can't takeA this town I'm Cleaving you tAonight
  Guitar 1:
e|------------------------------------------------------------|
B|------------------------------------------------------------|
G|------------------------------------------------------------|
D|--2------22-------2--------22------2------22--------2-------|
A|--2------22-------2--------22------2------22--------2-------|
E|--0------00-------0--------00------0------00--------0-------|
  Guitar 2:
e|------------------------------------------------------------|
B|------------------------------------------------------------|
G|(9999999999999999-9999999999999999-9999999999999999-9)------|
D|-xxxxxxxxxxxxxxxx-xxxxxxxxxxxxxxxx-xxxxxxxxxxxxxxxx-x-------|
A|-7777777777777777-7777777777777777-7777777777777777-7-------|
E|------------------------------------------------------------|
--== Wake Me Up When September Ends==-- Chords Used:
B               C               D               F
e-----          e-----          e-----          e-----
G-----          G--5--          G--7--          B-----
B--4--          B--5--          B--7--          G-----
D--4--          D--5--          D--7--          D--4--
A--2--          A--3--          A--5--          A--4--
E-----          E-----          E-----          E--2--
Bm              Cm              Em              G
e--2--          e--3--          e-----          e--3--
G--3--          G--4--          G-----          B--3--
B--4--          B--5--          B--0--          G--4--
D--4--          D--5--          D--2--          D--5--
A--2--          A--3--          A--2--          A--5--
E-----          E-----          E--0--          E--3--

Intro

   G
E----------------------------------------------------------------------------------|
B--------3-------3------------3-------3------------3-------3------------3-------3--|
G-----0-------0------------0-------0------------0-------0------------0-------0-----|
D--5-------5------------5-------5------------5-------5------------5-------5--------|
A----------------------------------------------------------------------------------|
E----------------------------------------------------------------------------------|
Verse's 1,2:
   G
E----------------------------------------------------------------------------------|
B--------3-------3------------3-------3------------3-------3------------3-------3--|
G-----0-------0------------0-------0------------0-------0------------0-------0-----|
D--5-------5------------4-------4------------2-------2------------0-------0--------|
A----------------------------------------------------------------------------------|
E----------------------------------------------------------------------------------|
Summer has come and passed, the innocent can never last
   C                    Cm                   G
E-----------------------------------------------------------------------------------|
B--------5--------5-----------4--------4-----------3--------3-----------3--------3--|
G--------5--------------------5-----------------------0--------0-----------0--------|
D-----5-----5--------------5-----5--------------------------------------------------|
A--3-----------3--------3-----------3-----------------------------------------------|
E--------------------------------------------3--3--------3--------3--3--------3-----|
Wake me up when September ends
   G
E----------------------------------------------------------------------------------|
B--------3-------3------------3-------3------------3-------3------------3-------3--|
G-----0-------0------------0-------0------------0-------0------------0-------0-----|
D--5-------5------------4-------4------------2-------2------------0-------0--------|
A----------------------------------------------------------------------------------|
E----------------------------------------------------------------------------------|
Like my father's come to pass, seven years has gone so fast
   C                    Cm                   G
E-----------------------------------------------------------------------------------------|
B--------5--------5-----------4--------4-----------3--------3-----------3-----------3--0--|
G--------5--------------------5-----------------------0--------0-----------0--------------|
D-----5-----5--------------5-----5--------------------------------------------------------|
A--3-----------3--------3-----------3-----------------------------------------------------|
E--------------------------------------------3--3--------3--------3--3--------2--2-----0--|
Wake me up when September ends

Chorus 1

   E                   Bm                   C                     G
E-----------------------------------------------------------------------------------------|
B--------0-------0----------3-------3---------------5-------------------3-----------3--0--|
G-----0-----0-0----------4-----4-4---------------5-----5-------------0-----0-----0--------|
D---------------------------------------------5-----------5-------------------------------|
A--2------------------2--------------------3----------------------------------------------|
E-----------------------------------------------------------------3-----------2--------0--|
Here comes the rain again Falling from the stars
   E                   Bm                   C                      D
E-----------------------------------------------------------------------------------------|
B--------0-------0-----------3-------3------------5--------5-------------7--------7-------|
G-----0-----0-0-----------4-----4-4------------------5----------------------7-------------|
D----------------------------------------------5--------5-------------7--------7----------|
A--2-------------------2--------------------3----------------------5----------------------|
E-----------------------------------------------------------------------------------------|
Drenched in my pain again, becoming who we are
   G
E----------------------------------------------------------------------------------|
B--------3-------3------------3-------3------------3-------3------------3-------3--|
G-----0-------0------------0-------0------------0-------0------------0-------0-----|
D--5-------5------------4-------4------------2-------2------------0-------0--------|
A----------------------------------------------------------------------------------|
E----------------------------------------------------------------------------------|
As my memory rests, but never forgets what I lost
   C                    Cm                   G
E-----------------------------------------------------------------------------------|
B--------5--------5-----------4--------4-----------3--------3-----------3--------3--|
G--------5--------------------5-----------------------0--------0-----------0--------|
D-----5-----5--------------5-----5--------------------------------------------------|
A--3-----------3--------3-----------3-----------------------------------------------|
E--------------------------------------------3--3--------3--------3--3--------3-----|
Wake me up when September ends
   G
E----------------------------------------------------------------------------------|
B--------3-------3------------3-------3------------3-------3------------3-------3--|
G-----0-------0------------0-------0------------0-------0------------0-------0-----|
D--5-------5------------5-------5------------5-------5------------5-------5--------|
A----------------------------------------------------------------------------------|
E----------------------------------------------------------------------------------|
   G
E----------------------------------------|
B--------3-------3------------3-------3--|
G-----0-------0------------0-------0-----|
D--5-------5------------5-------5--------|
A----------------------------------------|
E----------------------------------------|
Verse's 3,4:
   G
E----------------------------------------------------------------------------------|
B--------3-------3------------3-------3------------3-------3------------3-------3--|
G-----0-------0------------0-------0------------0-------0------------0-------0-----|
D--5-------5------------4-------4------------2-------2------------0-------0--------|
A----------------------------------------------------------------------------------|
E----------------------------------------------------------------------------------|
Summer has come and passed, the innocent can never last
   C                    Cm                   G
E----------------------5-5-5-5-5-5-5-5-----3-3-3-3-3-3-3-3-3-3-3-3--|
B--5-5-5-5-5-5-5-5-----4-4-4-4-4-4-4-4-----3-3-3-3-3-3-3-3-3-3-3-3--|
G--5-5-5-5-5-5-5-5-----5-5-5-5-5-5-5-5-----4-4-4-4-4-4-4-4-4-4-4-4--|
D--5-5-5-5-5-5-5-5-----5-5-5-5-5-5-5-5-----5-5-5-5-5-5-5-5-5-5-5-5--|
A--3-3-3-3-3-3-3-3-----3-3-3-3-3-3-3-3-----5-5-5-5-5-5-5-5-5-5-5-5--|
E------------------------------------------3-3-3-3-3-3-3-3-3-3-3-3--|
Wake me up when September ends
   G
E----------------------------------------------------------------------------------|
B--------3-------3------------3-------3------------3-------3------------3-------3--|
G-----0-------0------------0-------0------------0-------0------------0-------0-----|
D--5-------5------------4-------4------------2-------2------------0-------0--------|
A----------------------------------------------------------------------------------|
E----------------------------------------------------------------------------------|
Ring out the bells again, like we did when spring began
   C                    Cm                   G
E----------------------5-5-5-5-5-5-5-5-----3-3-3-3-3-3-3-3-3-3-------|
B--5-5-5-5-5-5-5-5-----4-4-4-4-4-4-4-4-----3-3-3-3-3-3-3-3-3-3-------|
G--5-5-5-5-5-5-5-5-----5-5-5-5-5-5-5-5-----4-4-4-4-4-4-4-4-4-4-------|
D--5-5-5-5-5-5-5-5-----5-5-5-5-5-5-5-5-----5-5-5-5-5-5-5-5-5-5--4-4--|
A--3-3-3-3-3-3-3-3-----3-3-3-3-3-3-3-3-----5-5-5-5-5-5-5-5-5-5--4-4--|
E------------------------------------------3-3-3-3-3-3-3-3-3-3--2-2--|
Wake me up when September ends

Chorus 2

EHere comes the Bmrain again CFalling from the Gstars F EDrenched in my Bmpain again CBecoming who we Dare
   G
E----------------------------------------------------------------------------------|
B--------3-------3------------3-------3------------3-------3------------3-------3--|
G-----0-------0------------0-------0------------0-------0------------0-------0-----|
D--5-------5------------4-------4------------2-------2------------0-------0--------|
A----------------------------------------------------------------------------------|
E----------------------------------------------------------------------------------|
As my memory rests, but never forgets what I lost
   C                    Cm                   G
E----------------------5-5-5-5-5-5-5-5-----3-3-3-3-3-3-3-3-3-3-------|
B--5-5-5-5-5-5-5-5-----4-4-4-4-4-4-4-4-----3-3-3-3-3-3-3-3-3-3-------|
G--5-5-5-5-5-5-5-5-----5-5-5-5-5-5-5-5-----4-4-4-4-4-4-4-4-4-4-------|
D--5-5-5-5-5-5-5-5-----5-5-5-5-5-5-5-5-----5-5-5-5-5-5-5-5-5-5--4-4--|
A--3-3-3-3-3-3-3-3-----3-3-3-3-3-3-3-3-----5-5-5-5-5-5-5-5-5-5--4-4--|
E------------------------------------------3-3-3-3-3-3-3-3-3-3--2-2--|
Wake me up when September ends

Solo

E--6/7---7-----7---7---------7-----7---7--------8-----8---8--------10-----10---10--|
B--7/8-8---8-8---8-------7-7---7-7---7------8-8---8-8---8------8-8----8-8----8-----|
G----------------------------------------------------------------------------------|
D----------------------------------------------------------------------------------|
A----------------------------------------------------------------------------------|
E----------------------------------------------------------------------------------|
E------7-----7---7---------7-----7---7--------8-----8---8----|
B--8-8---8-8---8-------7-7---7-7---7------8-8---8-8---8------|
G------------------------------------------------------------|
D------------------------------------------------------------|
A------------------------------------------------------------|
E------------------------------------------------------------|
E--10-10-10-10-10-10-10-10---10-10-10-10-10-10-10-10---|     \
B--8--8--8--8--8--8--8--8----10-10-10-10-10-10-10-10---|      |
G------------------------------------------------------|      |  (repeat 2x)
D------------------------------------------------------|      |
A------------------------------------------------------|      |
E------------------------------------------------------|     /
E--10~--|-------------------------------------------------------------------------------|
B--8~~--|--------3-------3-----------3-------3-----------3-------3-----------3-------3--|
G-------|-----0-------0-----------0-------0-----------0-------0-----------0-------0-----|
D-------|--5-------5-----------5-------5-----------5-------5-----------5-------5--------|
A-------|-------------------------------------------------------------------------------|
E-------|-------------------------------------------------------------------------------|
Verse's 5,6:
   G
E----------------------------------------------------------------------------------|
B--------3-------3------------3-------3------------3-------3------------3-------3--|
G-----0-------0------------0-------0------------0-------0------------0-------0-----|
D--5-------5------------4-------4------------2-------2------------0-------0--------|
A----------------------------------------------------------------------------------|
E----------------------------------------------------------------------------------|
Summer has come and passed, the innocent can never last
   C                    Cm                   G
E----------------------5-5-5-5-5-5-5-5-----3-3-3-3-3-3-3-3-3-3-3-3--|
B--5-5-5-5-5-5-5-5-----4-4-4-4-4-4-4-4-----3-3-3-3-3-3-3-3-3-3-3-3--|
G--5-5-5-5-5-5-5-5-----5-5-5-5-5-5-5-5-----4-4-4-4-4-4-4-4-4-4-4-4--|
D--5-5-5-5-5-5-5-5-----5-5-5-5-5-5-5-5-----5-5-5-5-5-5-5-5-5-5-5-5--|
A--3-3-3-3-3-3-3-3-----3-3-3-3-3-3-3-3-----5-5-5-5-5-5-5-5-5-5-5-5--|
E------------------------------------------3-3-3-3-3-3-3-3-3-3-3-3--|
Wake me up when September ends
   G
E----------------------------------------------------------------------------------|
B--------3-------3------------3-------3------------3-------3------------3-------3--|
G-----0-------0------------0-------0------------0-------0------------0-------0-----|
D--5-------5------------4-------4------------2-------2------------0-------0--------|
A----------------------------------------------------------------------------------|
E----------------------------------------------------------------------------------|
Like my father's come to pass, twenty years has gone so fast
   C                    Cm                   G
E----------------------5-5-5-5-5-5-5-5-----3-3-3-3-3-3-3-3-3-3-3-3--|    \
B--5-5-5-5-5-5-5-5-----4-4-4-4-4-4-4-4-----3-3-3-3-3-3-3-3-3-3-3-3--|    |
G--5-5-5-5-5-5-5-5-----5-5-5-5-5-5-5-5-----4-4-4-4-4-4-4-4-4-4-4-4--|    |  (repeat 3x)
D--5-5-5-5-5-5-5-5-----5-5-5-5-5-5-5-5-----5-5-5-5-5-5-5-5-5-5-5-5--|    |
A--3-3-3-3-3-3-3-3-----3-3-3-3-3-3-3-3-----5-5-5-5-5-5-5-5-5-5-5-5--|    |
E------------------------------------------3-3-3-3-3-3-3-3-3-3-3-3--|    /
Wake me up when September ends

Outro

E------10-----10--------10-----10--------10-----10-------10-----|
B--8-8----8-8-------8-8----8-8-------8-8----8-8-------8------8--|
G---------------------------------------------------------------|
D---------------------------------------------------------------|
A---------------------------------------------------------------|
E---------------------------------------------------------------|
--== Homecoming ==-- NOTE: Sorry about listing all of these chords here, but this song is like 9 minutes long and certain parts of use different forms of the same chords. Technically, you could ignore these and just play power chords, which would be a good enough approximation. I'm simply including these for individuals who want to know the precise chords (or rather, as precise as I can figure them) Chords Used:
A               D               B               E               C
e--5--          e-----          e-----          e-----          e-----
G--5--          G--7--          G-----          B-----          B-----
B--6--          B--7--          B--4--          G-----          G--5--
D--7--          D--7--          D--4--          D--2--          D--5--
A--7--          A--5--          A--2--          A--2--          A--3--
E--5--          E-----          E-----          E--0--          E-----
A                       D               G               E                       F
e-----          e-----          e--3--          e-----          e-----
G-----          G-----          G--3--          B-----          B-----
B--2--          B--7--          B--4--          G--9--          G-----
D--2--          D--7--          D--5--          D--9--          D--4--
A--0--          A--5--          A--5--          A--7--          A--4--
E-----          E-----          E--3--          E-----          E--2--
A               C              G
e-----          e-----          e-----
G-----          G-----          G-----
B-----          B--6--          B-----
D--7--          D--6--          D--5--
A--7--          A--4--          A--5--
E--5--          E-----          E--3--

Intro

A E D A

PART I:

Verse 1

AMy heart iEs beatiDng from Ame AI am Estanding aDll alAone EPlease call me onDly iAf you are Ecoming Dhome A
   B                    D
E-------------------------------------------------------|
B-----------------------3p2-----3p2-----3p2-----3p2-----|
G--4-4-4-4-4-4-4-4-4---------2-------2-------2-------2--|
D--4-4-4-4-4-4-4-4-4------------------------------------|
A--2-2-2-2-2-2-2-2-2------------------------------------|
E-------------------------------------------------------|
Waste another year flies by
   B                     D
E-------------------------------------------------------|
B------------------------3------------------------------|
G--4-4-4-4-4-4-4-4-4-----2------------------------------|
D--4-4-4-4-4-4-4-4-4------------------------------------|
A--2-2-2-2-2-2-2-2-2------------------------------------|
E-------------------------------------------------------|
Waste a night or two DYou taught mAe hDow to Elive

A D E A D A D E

Verse 2

AIn the streets Dof sEhame AWhere you've lost your Ddreams Ain Dthe Erain AThere's no signD of Ehope AThe stems and seeds of Dthe lasAt oDf thEe dope AThere's a glow Dof lEight AThe St. Jimmy is theD spark Ain Dthe Enight ABearing gifts aDnd tErust AA fixture iDn the cAity Dof Elust

Chorus

FWhat the hell's yEour nAame? AWhat's your pleFasure what iEs your pAain? FDo you dream too Emuch?A DDo you feel what you nAeed is a cErutch

A D E A D A D E

Verse 3

AIn the crowd ofD paiEn. ASt. Jimmy comesD withouAt aDny sEhame AHe says "we're fucked up" bDut we're not tEhe same AAnd mom and dad are theD ones yAou Dcan Eblame

Chorus 2

FJimmy died EtodaAy AHe blew out his brainsF into tEhe bay A FIn the state oEf minAd DIs my own private AsuicideE PART II:

Bridge

A D A G A

A D A G A --\ Well nobody cares | AWelDl nAoboGdy cAares | ADoeDs aAnyoGne cAare Aif DnobAodyG carAes? --/

Verse

DJesus filling out papGerwork Dnow GAt the facility on AEast 12th st. DHe's not listening toG a wordD now GHe's in his own world AAnd he's daydreaming DHe'd rather be doing soGmethingD else now GLike cigarettes and coffee with the Aunder belly DHis life's on the line witGh anxieDty now GAnd she had enough AAnd he had plenty D
   D
E------------------------|
B--7--7-7-7--8--7--5--7--|
G--7--7-7-7--7--7--7--7--|
D--7--7-7-7--7--7--7--7--|
A--5--5-5-5--5--5--5--5--|
E------------------------|
DSomebody get Ame oGut Aof hDere
   D
E------------------------|
B--7--7-7-7--8--7--5--7--|
G--7--7-7-7--7--7--7--7--|
D--7--7-7-7--7--7--7--7--|
A--5--5-5-5--5--5--5--5--|
E------------------------|
DAnybody get Ame oGut Aof hDere
   D
E------------------------|
B--7--7-7-7--8--7--5--7--|
G--7--7-7-7--7--7--7--7--|
D--7--7-7-7--7--7--7--7--|
A--5--5-5-5--5--5--5--5--|
E------------------------|
DSomebody get Ame oGut Aof hDere
   D
E------------------------|
B--7--7-7-7--8--7--5--7--|
G--7--7-7-7--7--7--7--7--|
D--7--7-7-7--7--7--7--7--|
A--5--5-5-5--5--5--5--5--|
E------------------------|
DGet me the fuck rigAht oGut Aof hDere CSo far away A AI don't want to stay C CGet me out of here right Anow CJust wanna be freeA AIs there a responsibility CGet me out of here right Anow
E-----------------5-5-5-----------------5/9-9-9--|
B--5-5-5-5-5-5-5---------5-5-5-5-5-5-5-----------|
G------------------------------------------------|  (repeat 2x)
D------------------------------------------------|
A------------------------------------------------|
E------------------------------------------------|
   D    C   G   A    D                          G A  D
E--10---8---3---5---------------------------------------|
B--10---8---3---5---------------------------------------|
G-------------------------------------------------------|
D--------------------7--7--7-------------------------7--|
A--------------------5--5--5--------------------5-7--5--|
E-----------------------------------------------3-5-----|
This lifelike dream ain't for me

D

Part III:

D Bi

DI fell asleAep while wGatching SpikeA TV After D10 cups of Acoffee And your sGtill not hAere DDreaming of a Asong But sGomething went Awrong And you Dcan't tell Aanyone 'Cause Gno one's hAere GLeft me here alAone And I shoGuld've stayed Ahome After B10 cups of Ccoffee I'm thDinking where'd you go DNobody likAes you GEveryone left Ayou DThey're all out Awithout you GHavin' Afun AWhere'd you go? DEveryone lAeft you GNobody likes yAou DThey're all out Awithout you GHavin' Afun AWhere'd you go? Part IV:

Intro

D E

Geez...ha...

Verse

A

AI got a rock and roll band DI got a rock and roll life AI got a rock and roll girlfriend EAnd another ex-wife AI got a rock and roll house DI got a rock and roll car AI play the shit out the drums EAnd I can play the guitar AI got a kid in New York DI got a kid in the bay AI haven't drank or smoked nothin' EIn over 22 days So get Goff my Acase OGff of my Acase OGff of my Acase

D

Part V:

D B G A

DHere they come marching dBown the street DLike a desperation Bmurmur of a hGeartbAeat DComing back from the eBdge of town GUnderneath their fAeet G A DThe time has come and it's Bgoing nowhere DNobody ever said that liBfe was fGair nAow DGo-carts and guns are treasures Bthey will bear GIn the summer hAeat D A GThe world is spiAnning GRound and round Out of conAtrol agaDin A GFrom the 7-A11 to the fDear of breaking Edown So Dsend my lGove a lAetterbomb And Dvisit mGe in Ahell GWe're the Aones Dgoing PART VI:

D A

DHome We're coming Ahome again DHome We're coming Ahome again GI started fuckin' running As soon as my fDeet touched ground GWe're back in barrio And to yAou and me, that's jingle town That's hDome We're coming hAome again DHome We're coming Ahome again DHome We're coming Ahome again DHome We're coming Ahome again
   D                          G        A                          G
E--------------------------------------------------------------------------
B--------------------------------------------------------------------------
G--7--7-7-7-7--7-7-7-7--7-7-7----------------------------------------------  (play 4x)
D--7--7-7-7-7--7-7-7-7--7-7-7-5-5-5-5--7--7-7-7-7--7-7-7-7--7-7-7-5-5-5-5--
A--5--5-5-5-5--5-5-5-5--5-5-5-5-5-5-5--7--7-7-7-7--7-7-7-7--7-7-7-5-5-5-5--
E-----------------------------3-3-3-3--5--5-5-5-5--5-5-5-5--5-5-5-3-3-3-3--
Home We're coming home again

Outro

D

Nobody likes you Everyone left you They're all out with out you Havin' fun... --== Whatsername ==-- Notes: Guitar is "Drop D" tuned. Sounds a bit like two songs put together: "One Headlight" by the Wallflowers, with the chorus of "Surrender" by Cheap Trick as a bridge. But, whatever. I smoke a lot of crack. Chords Used:
D               B               A
e-----          e-----          e-----
G-----          G-----          G-----
B--7--          B-----          B-----
D--7--          D--9--          D--7--
A--5--          A--9--          A--7--
D-----          D--9--          E--7--
G               F              D
e-----          e-----          e-----
G-----          G-----          G-----
B-----          B-----          B-----
D--5--          D--4--          D--0--
A--5--          A--4--          A--0--
D--5--          E--4--          E--0--

Intro

D B

Verse 1

DThought I ran into you down Bon the street DThen it turned out to only Bbe a dream

Chorus

GI made a Dpoint to burn all of the Fphotographs B A GShe went Daway and then I took a diFfferent path B A GI remember thDe face but I can't recFall the name B A GNow I wonder how Awhatsername has been.

Solo 1

   D          B            D          B
E----------------------------------------------
B--3--5/7--3--0--2--3------3--5/7--3--0--2--3--
G----------------------------------------------
D----------------------------------------------
A----------------------------------------------
E----------------------------------------------

Verse 2

DSeems that she disappeared Bwithout a trace DDid she ever marry oh Bwhats-his-face?

Chorus

GI made a Dpoint to burn all of the Fphotographs B A GShe went Daway and then I took a diFfferent path B A GI remember thDe face but I can't recFall the name B A GNow I wonder how Awhatsername has been.

Bridge

   D                                                       B
E-------------------------------------------------------------------------------------------
B-------------------------------------------------------------------------------------------
G--------6h7-----7--6-----6h7--------6h7-----7--6-----6h7-----------------------------------
D-----7-------7--------7----------7-------7--------7-------9-9-9-9-9-9-9-9-9-9-9-9-9-9-9-9--
A--5---------------------------5---------------------------9-9-9-9-9-9-9-9-9-9-9-9-9-9-9-9--
E----------------------------------------------------------9-9-9-9-9-9-9-9-9-9-9-9-9-9-9-9--

G D F B A

GRemember DWhatever AIt seems like Dforever ago GRemember DWhatever AIt seems like Dforever ago GThe regrets (Remember) DAre useless in my mind (WhFatever) She's in my head IB must Aconfess (It seems like forever ago) GThe regrets (Remember) DAre useless in my mind (WhFatever) She's in my head so Blong aAgo (It seems like forever ago) GGo..D. go... gFo.. B A GAnd in the Adarkest nigDhts GIf my memorAy serves me Dright GI'll never Aturn back timeD GForgetting Ayou but not the time

Outro

D B D B

   D          B
E----------------------
B--3--5/7--3--0--2--3--
G----------------------
D----------------------
A----------------------
E----------------------

D

Well, that's the complete album. I hope it helps those of you who like Green Day enough to emulate them via your guitar. Special thanks go out to Mike Fireball & Brian Grey for getting me the cd, greendayauthority.com for most of the lyrics and to reizig for the parts of "Letterbomb" I borrowed from his tab. And of course, Green Day!