Green Day - Restless Heart Syndrome Chords

Band Enters Riff
 
3 fr
         
         
         
         
1
3
4
1
1
1
5 fr
         
         
         
         
X
X
1
3
4
2
3 fr
         
         
         
         
X
X
3
1
1
1
         
         
         
         
1
X
2
3
4
         
         
         
         
3
1
X
X
X
         
         
         
         
2
1
3
4

7 fr
         
         
         
         
X
4
3
1
2
X
10 fr
         
         
         
         
X
1
3
4
2
1
         
         
         
         
1
3
4
2
1
1
5 fr
         
         
         
         
X
4
3
1
2
1
3 fr
         
         
         
         
X
X
1
2
4
3
         
         
         
         
X
X
3
2
1
1
8 fr
         
         
         
         
X
1
3
3
3
1
10 fr
         
         
         
         
4
3
1
1
1
X

10 fr
         
         
         
         
3
2
1
1
1
4

E7M

variations
         
         
         
         
X
X
1
4
4
4
6 fr
         
         
         
         
X
1
3
2
4
1
6 fr
         
         
         
         
X
1
X
3
4
2
3 fr
         
         
         
         
X
4
3
1
1
1
10 fr
         
         
         
         
X
X
4
3
2
1
11 fr
         
         
         
         
1
4
2
3
1
1
3 fr
         
         
         
         
X
1
3
4
2
1
8 fr
         
         
         
         
1
3
4
1
1
1
         
         
         
         
X
3
1
X
X
         
         
         
         
X
4
1
2
X
8 fr
         
         
         
         
X
X
3
1
1
1
10 fr
         
         
         
         
X
X
1
3
4
2

12 fr
         
         
         
         
X
4
3
1
2
X

B

variations
         
         
         
         
X
1
2
3
4
1
6 fr
         
         
         
         
1
3
4
2
1
1
         
         
         
         
X
1
4
4
4
X
         
         
         
         
X
1
X
3
4
1
3 fr
         
         
         
         
3
2
1
1
1
4
8 fr
         
         
         
         
X
X
1
3
4
3

10 fr
         
         
         
         
X
4
3
1
2
1

A7M

variations
4 fr
         
         
         
         
1
4
2
3
1
1
6 fr
         
         
         
         
X
X
1
4
4
4
4 fr
         
         
         
         
1
X
3
4
2
X
3 fr
         
         
         
         
X
X
4
3
2
1
8 fr
         
         
         
         
X
4
3
1
1
1
         
         
         
         
X
3
2
1
3 fr
         
         
         
         
X
1
2
3
4
1
8 fr
         
         
         
         
1
3
4
2
1
1
3 fr
         
         
         
         
X
1
X
3
4
1
5 fr
         
         
         
         
3
2
1
1
1
4
10 fr
         
         
         
         
X
X
1
3
4
3

12 fr
         
         
         
         
X
4
3
1
2
1
3 fr
         
         
         
         
X

E

variations
3 fr
         
         
         
         
X
4
3
1
2
1
6 fr
         
         
         
         
X
1
2
3
4
1
         
         
         
         
X
X
1
2
4
3
3 fr
         
         
         
         
X
4
3
1
2
X
8 fr
         
         
         
         
4
3
1
1
1
X
8 fr
         
         
         
         
3
2
1
1
1
4

11 fr
         
         
         
         
1
3
4
2
1
1

A

variations
4 fr
         
         
         
         
1
3
4
2
1
1
4 fr
         
         
         
         
X
X
3
2
1
1
6 fr
         
         
         
         
X
X
1
2
4
3
         
         
         
         
3
2
1
1
1
4
8 fr
         
         
         
         
X
4
3
1
2
1
11 fr
         
         
         
         
X
1
2
3
4
X

11 fr
         
         
         
         
X
1
3
3
3
1
         
         
         
         
X
X
1
3
2
2 fr
         
         
         
         
X
4
3
1
2
1
5 fr
         
         
         
         
X
1
2
3
4
1
5 fr
         
         
         
         
X
1
4
4
4
X
7 fr
         
         
         
         
4
3
1
1
1
X
7 fr
         
         
         
         
3
2
1
1
1
4

10 fr
         
         
         
         
1
3
4
2
1
1
12 fr
         
         
         
         
X
X
1
3
4
3
5 fr
         
         
         
         
X
X

Em7(5)

variations
         
         
         
         
X
X
1
3
3
3
         
         
         
         
1
4
5 fr
         
         
         
         
X
3
1
4
1
2
7 fr
         
         
         
         
X
1
3
2
4
X
11 fr
         
         
         
         
2
X
3
4
1
X

Am7(5)

variations
         
         
         
         
X
1
2
X
         
         
         
         
X
1
2
1
4
5 fr
         
         
         
         
1
2
1
1
4
1
7 fr
         
         
         
         
X
X
1
3
3
3
10 fr
         
         
         
         
X
3
1
4
1
2
         
         
         
         
X
X
2
1
3
5 fr
         
         
         
         
X
1
3
1
4
1
5 fr
         
         
         
         
X
X
1
3
1
10 fr
         
         
         
         
1
3
1
2
1
1
5 fr
         
         
         
         
X
1
3
3
3
4
7 fr
         
         
         
         
4
3
1
1
1
2

10 fr
         
         
         
         
1
3
1
2
X
1
10 fr
         
         
         
         
1
3
1
2
4
1
12 fr
         
         
         
         
X
X
1
3
2
4
No chord
Standard guitar tuning:
E
A
D
G
B
E
Capo on 3 fret
Gm/F ====== x54000 Em7b5 ===== x42000 E7M ==== x32000 Em7b13 ==== x42200 Cm/B ===== 3x2210 Am7b5 ===== 2x2210 A7M ==== 1x2210 Gm/F ====== 1x0333 Em7b5 ===== 0x2333 E7M ==== x68886 Em7b13 ==== 0x2013 Cm/B ===== 6x5043 or 6x558x Am7b5 ===== x05543 A7M ==== 4x5543
  Gm       C         F        B
|------------------|-----5------------|
|-----0------------|-3----------------|
|-0--------2---2---|---2---2--0---0---|
|---2---2----2---2-|-0----------0---0-|
|----------0-------|------------------|
|-0----------------|----------3-------|
  E       A        D
|-----3------------|--------|
|-1------------1---|-4------|
|---0---0--2-------|-4------|
|------------3---3-|-4------|
|-3----------------|-2------|
|----------1-------|--------|

Verse 1

GmI’ve got a GmreaFlly bad disEm7(5)ease E7M GmIt's got me GmbegFging on my Em713hands and knees E7M So Gmtake me Gmto F eEm7(5)mergencE7My Gm'Cause something sGmeemFs to be missEm713ing E7M GmSomebody GmtakFe the pain awEm7(5)ay E7M Gm It's like an ulGmcerF bleeding Em713in my brain E7M So Gmsend me Gmto Fthe Em7(5)pharmacE7My Gm So I can GmlosFe my memorEm713y E7M

Pre-chorus

Cm I'm eCmlatBed Am7(5) MedicA7Mated Cm Lord knows I CmtriBed to find a Am7(5)way A7M to run D7away. D

Verse 2

Gm I think they GmfouFnd another Em7(5)cure E7M Gm For broken heaGmrtsF and feeling Em713insecurE7Me You'd Gmbe surGmpriFsed what Em7(5)I endurE7Me Gm What makes you feGmel Fso self-aEm713ssured? E7M Gm I need to GmfinFd a place to Em7(5)hide E7M Gm You never knoGmw wFhat could be Em713waiting outsE7Mide The GmaccideGmntsF that Em7(5)you could fiE7Mnd Gm It's like some kinGmd oFf suicEm713ide E7M

Pre-chorus

Cm So what CmailBs yoAm7(5)u is what iA7Mmpales you Cm I feel like CmI'vBe been cruciAm7(5)fied A7M to be satisD7fied D

Chorus

Gm I'm a victim Gm F of my symptom Em7(5) I am my Cmown worst eneFmy D Gm You're a victimGm F of your symptom Em7(5) You are your Cmown worst eneFmy DKnow your enemy

Solo

Gm Gm F Em7(5) E7M

Gm Gm F Em713 E7M

Gm Gm F Em7(5) E7M

Gm Gm F Em713 E7M

Or you can play the “real” solo instead of chords
|-------------------|------------------------|
|-5--8-5-7---8-5----|-8-5-7---8-10-11b12-----|
|-------------------|------------------------|
|-------------------|------------------------|
|-------------------|------------------------|
|-------------------|------------------------|

Pre-chorus

Gm I'm elated Gm F Medicated Em7(5) I am my Cmown worst enemFy D Gm So what ails you Gm F Is what impales you Em7(5) You are your Cmown worst enemFy D

Chorus

Gm You're a victimGm F of the system Em7(5) You are your Cmown worst enemFy D Gm You're a victimGm F of the system Em7(5) You are your Cmown worst enemFy D
Part 1:

Gm

||-----------------|------------------| ||-----------------|------------------| ||---------9-9-9-9-|---------9-9-9-9--| ||---------x-x-x-x-|---------x-x-x-x--| ||-x-x-x-x-7-7-7-7-|-x-x-x-x-7-7-7-7--| ||-0-0-0-0---------|-0-0-0-0----------|
  E
|------------------|-------------------||
|------------------|-------------------||
|----------5-5-5-5-|-----5-------5/4---||
|-x-x-x-x--x-x-x-x-|-x-x-x---x-x-x-----||
|-3-3-3-3----------|-3-3-3---3-3-3/2---||
|------------------|-------------------||
Repeat Part 1 another time...
Part 2:

Gm

||-----------------|------------------| ||---------8-8-8-8-|---------8-8-8-8--| ||---------9-9-9-9-|---------9-9-9-9--| ||---------x-x-x-x-|---------x-x-x-x--| ||-x-x-x-x-7-7-7-7-|-x-x-x-x-7-7-7-7--| ||-0-0-0-0---------|-0-0-0-0----------|
  E
|------------------|-------------------||
|----------5-5-5-5-|-----5-------5/4---||
|----------5-5-5-5-|-----5-------5/4---||
|-x-x-x-x—-5-5-5-5-|-x-x-5---x-x-5/4---||
|-3-3-3-3----------|-3-3-----3-3-------||
|------------------|-------------------||
Repeat Part 2 another time...
 Gm
|----------------|-0----|
|----------------|-0----|
|----------------|-0----|
|-2---2---2---2--|-2----|
|-2---2---2---2--|-2----|
|-0---0---0---0--|-0----|
STANDARD VERSION :

Intro

  Gm       C         F           B
|------------------|-------8------------|
|-----3------------|--------------------|
|-3--------5---5---|-10-----------------|
|---5---5----5---5-|----10---10-8---8---|
|----------3-------|--8-----------8---8-|
|-3----------------|------------6-------|
  E       A        D
|-----6------------|--------|
|--------------4---|-7------|
|-8-----8--5-------|-7------|
|---8--------6---6-|-7------|
|-6----------------|-5------|
|----------4-------|--------|

Solo

Played fast (tremolo picking)
|-----------------|---------------------------------|
|8--11-8-10--11-8-|-11-8-10--11-13--11-10-11--10-6--|
|-----------------|---------------------------------|
|-----------------|---------------------------------|
|-----------------|---------------------------------|
|-----------------|---------------------------------|
|------------------|------------------------|
|-8--11-8-10--11-8-|-11-8-10--11-13-14b15---|
|------------------|------------------------|
|------------------|------------------------|
|------------------|------------------------|

Outro

Part 1:

Gm

|---------------------|----------------------| |---------------------|----------------------| |---------12-12-12-12-|---------12-12-12-12--| |----------x--x--x--x-|----------x—-x--x--x--| |-x-x-x-x-10-10-10-10-|-x-x-x-x-10-10-10-10--| |-3-3-3-3-------------|-3-3-3-3--------------|
  E
|------------------|-------------------|
|------------------|-------------------|
|----------8-8-8-8-|-----8-------8/7---|
|-x-x-x-x--x-x-x-x-|-x-x-x---x-x-x-----|
|-6-6-6-6----------|-6-6-6---6-6-6/5---|
|------------------|-------------------|
Repeat Part 1 another time
Part 2:

Gm

|---------------------|----------------------| |---------11-11-11-11-|---------11-11-11-11--| |---------12-12-12-12-|---------12-12-12-12--| |----------x--x--x--x-|----------x—-x--x--x--| |-x-x-x-x-10-10-10-10-|-x-x-x-x-10-10-10-10--| |-3-3-3-3-------------|-3-3-3-3--------------|
  E
|------------------|-------------------|
|----------8-8-8-8-|-----8-------8/7---|
|----------8-8-8-8-|-----8-------8/7---|
|-x-x-x-x--8-8-8-8-|-x-x-8---x-x-8/7---|
|-6-6-6-6----------|-6-6-----6-6-------|
|------------------|-------------------|
Repeat Part 2 another time...
 Gm
|----------------|-3----|
|----------------|-3----|
|----------------|-3----|
|-5---5---5---5--|-5----|
|-5---5---5---5--|-5----|
|-3---3---3---3--|-3----|
Tabber: Maxime Legault