Green Day - See The Light Chords

Main Riff
Main Riff
Main Riff
 

A

variations
4 fr
         
         
         
         
         
1
3
4
2
1
1
4 fr
         
         
         
         
         
X
X
3
2
1
1
6 fr
         
         
         
         
         
X
X
1
2
4
3
         
         
         
         
         
3
2
1
1
1
4
8 fr
         
         
         
         
         
X
4
3
1
2
1
11 fr
         
         
         
         
         
X
1
2
3
4
X

11 fr
         
         
         
         
         
X
1
3
3
3
1

C

variations
4 fr
         
         
         
         
         
X
1
2
3
4
1
         
         
         
         
         
X
4
3
1
2
1
4 fr
         
         
         
         
         
X
1
4
4
4
X
6 fr
         
         
         
         
         
4
3
1
1
1
X
6 fr
         
         
         
         
         
3
2
1
1
1
4
9 fr
         
         
         
         
         
1
3
4
2
1
1

11 fr
         
         
         
         
         
X
X
1
3
4
3

F

variations
         
         
         
         
         
1
3
4
2
1
1
         
         
         
         
         
X
X
3
2
1
1
6 fr
         
         
         
         
         
X
4
3
1
2
1
4 fr
         
         
         
         
         
X
X
1
2
4
3
9 fr
         
         
         
         
         
X
1
3
3
3
1
11 fr
         
         
         
         
         
4
3
1
1
1
X

11 fr
         
         
         
         
         
3
2
1
1
1
4

E

variations
3 fr
         
         
         
         
         
X
4
3
1
2
1
6 fr
         
         
         
         
         
X
1
2
3
4
1
         
         
         
         
         
X
X
1
2
4
3
3 fr
         
         
         
         
         
X
4
3
1
2
X
8 fr
         
         
         
         
         
4
3
1
1
1
X
8 fr
         
         
         
         
         
3
2
1
1
1
4

11 fr
         
         
         
         
         
1
3
4
2
1
1
         
         
         
         
         
X
3
2
1
3 fr
         
         
         
         
         
X
1
2
3
4
1
8 fr
         
         
         
         
         
1
3
4
2
1
1
3 fr
         
         
         
         
         
X
1
X
3
4
1
5 fr
         
         
         
         
         
3
2
1
1
1
4
10 fr
         
         
         
         
         
X
X
1
3
4
3

12 fr
         
         
         
         
         
X
4
3
1
2
1
3 fr
         
         
         
         
         
X
No chord
Standard guitar tuning:
E
A
D
G
B
E
No capo
Key: A then C Chords used:

Intro

C#--G#-- x4
Guitar 2:
e|-11-----11-----11-----11-----11-------|
B|----9------9------9------9------9---9-|
G|------8------8------8------8------8---|
D|--------------------------------------| x8
A|--------------------------------------|
E|--------------------------------------|

Verse 1

Well I Ccrossed the Ariver Fell inCto the Asea Where the Cnon-beAlievers Go beCyond beAlief Then I sCcratched the Asurface In the Cmouth of AHell Running Cout of Aservice In the Cblood I Afell

Chorus

Well CI, I just Fwant to Csee the AlightC A And CI, I don't Fwant to Close my AsightC A Well CI, I just Fwant to Csee the AlightC A And CI need to Fknow what's Cworth the Efight

Verse 2

CI've been Awasted Pills and CalcoAhol CI've been Achasing Down the Cpool Ahalls Then I Cdrank the Awater From a ChurriAcane And I Cset a Afire Just to Csee the Aflame

C

Guitar solo

C#--F#-C#-G#--C#-G#- x3 C#--F#-C#-Eb
Guitar 2:

C F C A

e|---------------|--------|--------|------8-----8---8---8---11---11---| B|-6--4------4-6-|-7--7-7-|-6--6-6-|-9--9---9-9---9---9---9----9----9-| G|------6--6-----|--------|--------|----------------------------------| D|---------------|--------|--------|----------------------------------| A|---------------|--------|--------|----------------------------------| E|---------------|--------|--------|----------------------------------|
           C               F          C
e|-13--11--------11-13-|-14--14-14-|-13--13-13-|
B|--------14--14-------|-----------|-----------|
G|---------------------|-----------|-----------|
D|---------------------|-----------|-----------|
A|---------------------|-----------|-----------|
E|---------------------|-----------|-----------|
                      A
e|-----------------------------------16----------|
B|-16--16-------16-------16----16----------16----|
G|--------13-13----13-13----13----13----13----13-|
D|-----------------------------------------------|
A|-----------------------------------------------|
E|-----------------------------------------------|
        C          F     C                   A
e|---------------|------|------|------8-----8---8---8---11---11---|
B|-6--4------4-6-|-7--7-|-6--6-|-9--9---9-9---9---9---9----9----9-|
G|------6--6-----|------|------|----------------------------------|
D|---------------|------|------|----------------------------------|
A|---------------|------|------|----------------------------------|
E|---------------|------|------|----------------------------------|
           C               F          C
e|-13--11--------11-13-|-14--14-14-|-13--13-13-|
B|--------14--14-------|-----------|-----------|
G|---------------------|-----------|-----------|
D|---------------------|-----------|-----------|
A|---------------------|-----------|-----------|
E|---------------------|-----------|-----------|
                   E
e|-11--11-----11-----11---11---11---11---|
B|--------9-9----9-9----9----9----9----9-|
G|---------------------------------------|
D|---------------------------------------|
A|---------------------------------------|
E|---------------------------------------|

Interlude

C#--G#-- x2
Guitar 2:

C A C A

e|---|-11----|-11-----|-11--9-|-8-| B|-9-|-----9-|------9-|-------|---| G|---|-------|--------|-------|---| D|---|-------|--------|-------|---| A|---|-------|--------|-------|---| E|---|-------|--------|-------|---|

Verse 3

I Ccrossed the Adesert Reaching Chigher Aground Then I Cpound the Apavement To take the Cliars Adown But it's Cgone forAever But never Ctoo Alate Where the Cever Aafter It's the Chands of Afate

C

Outro

C#--G#-- x12