Green Day - Time Of Your Life Chords

 
         
         
         
         
         
3
2
4
3 fr
         
         
         
         
         
1
3
4
2
1
1
         
         
         
         
         
2
1
3
4
3 fr
         
         
         
         
         
X
X
3
2
1
1
5 fr
         
         
         
         
         
X
X
1
3
4
3
7 fr
         
         
         
         
         
X
4
3
1
2
1

10 fr
         
         
         
         
         
X
1
2
3
4
X
10 fr
         
         
         
         
         
X
1
3
3
3
1
12 fr
         
         
         
         
         
3
2
1
1
1
4

Cadd9

variations
         
         
         
         
         
X
2
1
3
X
         
         
         
         
         
X
3
1
         
         
         
         
         
X
2
3
8 fr
         
         
         
         
         
X
X
3
2
1
4
         
         
         
         
         
X
         
         
         
         
         
X
         
         
         
         
         
X
X
1
3
2
2 fr
         
         
         
         
         
X
4
3
1
2
1
5 fr
         
         
         
         
         
X
1
2
3
4
1
5 fr
         
         
         
         
         
X
1
4
4
4
X
7 fr
         
         
         
         
         
4
3
1
1
1
X
7 fr
         
         
         
         
         
3
2
1
1
1
4

10 fr
         
         
         
         
         
1
3
4
2
1
1
12 fr
         
         
         
         
         
X
X
1
3
4
3
5 fr
         
         
         
         
         
X
X
         
         
         
         
         
2
3
3 fr
         
         
         
         
         
X
X
2
4
1
7 fr
         
         
         
         
         
X
1
3
4
2
1
2 fr
         
         
         
         
         
X
X
1
3
4
2
3 fr
         
         
         
         
         
X
3
2
4
1
4 fr
         
         
         
         
         
X
4
3
1
2
X

12 fr
         
         
         
         
         
1
3
4
1
1
1
         
         
         
         
         
X
3
2
1
3 fr
         
         
         
         
         
X
1
2
3
4
1
8 fr
         
         
         
         
         
1
3
4
2
1
1
3 fr
         
         
         
         
         
X
1
X
3
4
1
5 fr
         
         
         
         
         
3
2
1
1
1
4
10 fr
         
         
         
         
         
X
X
1
3
4
3

12 fr
         
         
         
         
         
X
4
3
1
2
1
3 fr
         
         
         
         
         
X
No chord
Standard guitar tuning:
E
A
D
G
B
E
No capo
G = 320033 Cadd9 = x32030 D = xx0232 Em = 022000 C = x32010 My first chords/tabs Enjoy!!!

Intro 1

Optional)
e|------------------------------------------|
B|------------------------------------------|
G|-----0-----------------0------------------|
D|--------0-----------------0---------------|
A|------------------------------------------|
E|--3-----------------3---------------------|

Intro 2

                          G
E|---------------------------------------------------
A|-------3----------------------3--------------------
D|----------0----------------------0-----------------
G|-----------------0----------------------0----------
B|-------------2----------------------2--------------
E|----3---------------------3------------------------
           Cadd9                       D
-----------------------------------------------------|
--------3--------------------------3-----------------|
-----------0-----0--------------------2-------2------|
--------------2-----------------0----------0---------|
-----2-----------------------------------------------|
-----------------------------------------------------|
GAnother turning point, a Cadd9fork stuck in the rDoad GTime takes you by the wrist, dCadd9irects you where to gDo Tab 1:
          Em                       G
e|-------------------------------------------|
B|-----0-----------------------3-------------|
G|--------0-----0-----------------0-----0----|
D|-----------2-----------------------2-------|
A|--2----------------------------------------|
E|-------------------------3-----------------|
EmSo make the bGest of this tEmest and don’t ask wGhy EmIts not a queGstion but a lEmesson learned in tiDme EmIts something unpredGictable, but iEmn the end its rGight
Tab 2

Em D

e|-------------------------------------------| B|------0-----------------------3------------| G|--------0---0--------------------2-----2---| D|----------2---------------0---------0------| A|---2---------------------------------------| E|-------------------------------------------|
I Emhope you had the tDime of your lGife

G

G,C,D x2

GSo take the photographs and stCill frames in your mDind GHang it on a shelf in gCood health and good tDime EmTattoos and meGmories and dEmead skin on trGial EmFor what its wGorth, it was wEmorth all the whDile EmIt’s something unpredGictable, but Emin the end its rDight EmI hope you had the tCime of your lDife

G,C,D x4

Em,G x3

Em D

EmIts something unpredGictable, but Emin the end its rGight EmI hope you had the tCime of your lDife

G,C,D x2

(Finally, strum a G chord, but without the high e, so you play: 32003x)