Greg Lake - I Believe In Father Christmas Chords

 
         
         
         
         
         
X
X
1
3
2
2 fr
         
         
         
         
         
X
4
3
1
2
1
5 fr
         
         
         
         
         
X
1
2
3
4
1
5 fr
         
         
         
         
         
X
1
4
4
4
X
7 fr
         
         
         
         
         
4
3
1
1
1
X
7 fr
         
         
         
         
         
3
2
1
1
1
4

10 fr
         
         
         
         
         
1
3
4
2
1
1
12 fr
         
         
         
         
         
X
X
1
3
4
3
5 fr
         
         
         
         
         
X
X
         
         
         
         
         
X
1
2
3
5 fr
         
         
         
         
         
1
3
4
2
1
1
2 fr
         
         
         
         
         
X
1
1
1
4
         
         
         
         
         
X
X
1
2
2 fr
         
         
         
         
         
3
2
1
1
1
4
7 fr
         
         
         
         
         
X
X
1
3
4
3

9 fr
         
         
         
         
         
X
4
3
1
2
1
12 fr
         
         
         
         
         
X
1
3
3
3
1
         
         
         
         
         
3
2
4
3 fr
         
         
         
         
         
1
3
4
2
1
1
         
         
         
         
         
2
1
3
4
3 fr
         
         
         
         
         
X
X
3
2
1
1
5 fr
         
         
         
         
         
X
X
1
3
4
3
7 fr
         
         
         
         
         
X
4
3
1
2
1

10 fr
         
         
         
         
         
X
1
2
3
4
X
10 fr
         
         
         
         
         
X
1
3
3
3
1
12 fr
         
         
         
         
         
3
2
1
1
1
4
7 fr
         
         
         
         
         
1
3
4
2
1
1
         
         
         
         
         
X
2
1
X
3
         
         
         
         
         
X
1
4
4
4
X
         
         
         
         
         
X
1
3
3
3
1
4 fr
         
         
         
         
         
4
3
1
1
1
X
4 fr
         
         
         
         
         
3
2
1
1
1
4

9 fr
         
         
         
         
         
X
X
1
3
4
3
11 fr
         
         
         
         
         
X
4
3
1
2
1
         
         
         
         
         
2
3
1
4 fr
         
         
         
         
         
X
4
3
1
2
1
7 fr
         
         
         
         
         
X
1
4
4
4
X
2 fr
         
         
         
         
         
X
X
1
2
4
3
4 fr
         
         
         
         
         
4
3
1
2
1
7 fr
         
         
         
         
         
X
1
3
3
3
1

9 fr
         
         
         
         
         
4
3
1
1
1
X
9 fr
         
         
         
         
         
3
2
1
1
1
4
12 fr
         
         
         
         
         
1
3
4
2
1
1
4 fr
         
         
         
         
         
X

Dsus2

variations
         
         
         
         
         
X
X
3
4
2 fr
         
         
         
         
         
X
3
1
1
2
4
2 fr
         
         
         
         
         
X
2
1
1
3
4
5 fr
         
         
         
         
         
X
1
3
4
1
1
7 fr
         
         
         
         
         
4
1
1
1
X
X
9 fr
         
         
         
         
         
X
X
3
1
2
4
         
         
         
         
         
2
7 fr
         
         
         
         
         
X
1
3
1
2
1
         
         
         
         
         
X
X
1
3
2
2
         
         
         
         
         
1
2
4
4
         
         
         
         
         
2
3
4
         
         
         
         
         
2
4

3 fr
         
         
         
         
         
X
3
2
1
5 fr
         
         
         
         
         
X
2
1
3
1
4
7 fr
         
         
         
         
         
X
1
3
1
2
X
7 fr
         
         
         
         
         
X
1
3
1
2
4
12 fr
         
         
         
         
         
1
3
1
1
4
1
         
         
         
         
         
X
3
2
1
3 fr
         
         
         
         
         
X
1
2
3
4
1
8 fr
         
         
         
         
         
1
3
4
2
1
1
3 fr
         
         
         
         
         
X
1
X
3
4
1
5 fr
         
         
         
         
         
3
2
1
1
1
4
10 fr
         
         
         
         
         
X
X
1
3
4
3

12 fr
         
         
         
         
         
X
4
3
1
2
1
3 fr
         
         
         
         
         
X
         
         
         
         
         
3
2
5 fr
         
         
         
         
         
X
X
1
3
1
4
10 fr
         
         
         
         
         
X
         
         
         
         
         
X
X
1
2
4 fr
         
         
         
         
         
X
2
1
1
4
3
5 fr
         
         
         
         
         
X
1
3
3
3
3
7 fr
         
         
         
         
         
4
3
1
1
1
1
         
         
         
         
         
X
1
1
1
3
         
         
         
         
         
X
1
3
5 fr
         
         
         
         
         
1
3
1
2
1
1
7 fr
         
         
         
         
         
X
1
3
2
4
2 fr
         
         
         
         
         
4
3
1
1
1
2
5 fr
         
         
         
         
         
1
3
1
2
4
1

7 fr
         
         
         
         
         
X
X
1
3
2
4
10 fr
         
         
         
         
         
X
3
2
4
1
12 fr
         
         
         
         
         
X
1
3
3
3
4
No chord
Standard guitar tuning:
E
A
D
G
B
E
No capo

DADGBE

I've now updated the tab to include the Troika Theme from Prokofiev's Lieutenant Kije between the verses (I originally thought it was so simple anyone could work it out by ear, but going by a certain other contribution I see that apparently it's not!) ---

Dsus2Dsus2Dsus2Dsus2

G They said_D__ there'll be Em7snow at DChristmas, G They said_D__ there'll be Em7peace on Dearth, G But inDstead it just Em7kept on Draining, G A veil of Dtears for Em7the Virgin Dbirth. C I reGmember one DChristmas morning, C The Winter's Glight and a Ddistant choir, And the Dpeal of a Abell and that GChristmas tree Dsmell, And Deyes full of G6tinsel and Dsus2fire.
{--Troika Theme--}

D G D6 D

e|--------|--------|--------|--------|--------| B|--------|3-2-0-2-|3-------|--------|--------| G|------2-|--------|----4---|2---4---|----2---| D|--------|--------|--------|--------|4-------| A|--------|--------|--------|--------|--------| D|--------|--------|--------|--------|--------|
  G        D        A        A
e|--------|--------|--------|--------|
B|--------|3---2-3-|--------|--------|
G|4-2-0---|--------|2-------|----0---|
D|--------|--------|--------|------4-|
A|--------|--------|--------|--------|
D|--------|--------|--------|--------|
  G6       D        A7       D
e|--------|--------|--------|--------|
B|--------|--------|--------|----3---|
G|----4---|2---0---|2--0--0-|2-----4-|
D|2-------|--------|----4---|--------|
A|--------|--------|--------|--------|
D|--------|--------|--------|--------|
  G        A        Dsus2    Dsus2
e|--------|--------|--------|--------|
B|--------|--------|--------|--------|
G|0-----0-|2---2---|--------|--------|
D|----4---|--------|0-------|--------|
A|--------|--------|--------|--------|
D|--------|--------|--------|--------|
G They sold_D__ me a Em7dream of DChristmas, G They sold_D__ me A Em7silent Dnight, G They told_D__ me A Em7fairy Dstory, G 'Til I beDlieved in the Em7IsraeDlite. C And I beGlieved in DFather Christmas, And I Clooked to the Gsky with exDcited eyes, Then I Dwoke with a Ayawn in the Gfirst light of Ddawn, And I Dsaw him and G6through his disDsus2guise. {--Repeat Troika Theme--}

DGD6D

GDAA

G6DA7D

GADsus2Dsus2

G I wish_D__ you A Em7hopeful DChristmas, G I wish_D__ you a Em7brave New DYear, G All an_D__guish, Em7pain and Dsadness, G Leave your Dheart and let your Em7road be Dclear. C They Gsaid there'd be Dsnow at Christmas, C They Gsaid there'd be Dpeace on earth, HalleDlujah! NoAel!, be it GHeaven or DHell, The DChristmas we G6get, we deDserve.
           D        G        D6       D
e|--------|--------|--------|--------|--------|
B|--------|3-2-0-2-|3-------|--------|--------|
G|------2-|--------|----4---|2---4---|----2---|
D|--------|--------|--------|--------|4-------|
A|--------|--------|--------|--------|--------|
D|--------|--------|--------|--------|--------|
  G        D        A        A
e|--------|--------|--------|--------|
B|--------|3---2-3-|--------|--------|
G|4-2-0---|--------|2-------|----0---|
D|--------|--------|--------|------4-|
A|--------|--------|--------|--------|
D|--------|--------|--------|--------|
  G6       D        A7       D
e|--------|--------|--------|--------|
B|--------|--------|--------|----3---|
G|----4---|2---0---|2--0--0-|2-----4-|
D|2-------|--------|----4---|--------|
A|--------|--------|--------|--------|
D|--------|--------|--------|--------|
  G        A        Dsus2    Dsus2
e|--------|--------|--------|--------|
B|--------|--------|--------|--------|
G|0-----0-|2---2---|--------|----0---|
D|----4---|--------|0-------|------4-|
A|--------|--------|--------|--------|
D|--------|--------|--------|--------|
  G6       D        A7       D
e|--------|--------|--------|--------|
B|--------|--------|--------|----3---|
G|----4---|2---0---|2--0--0-|2-----4-|
D|2-------|--------|----4---|--------|
A|--------|--------|--------|--------|
D|--------|--------|--------|--------|
  G        A        D
e|--------|--------|2-------|--------|
B|--------|--------|3-------|--------|
G|0-----0-|2---2---|2-------|--------|
D|----4---|--------|0-------|--------|
A|--------|--------|0-------|--------|
D|--------|--------|0-------|--------|