Gregory And The Hawk - Oats We Sow Chords

 
No chord
Standard guitar tuning:
E
A
D
G
B
E
Capo on 1 fret
        Someday I'll toss all your presents...
|-----------------------------------------3------------|
|-----1---0---1---1---0---1---1---0---1---1------------|
|-----0-----0-----0-----0-----0-----0------------------|
|---2---2-------3---3-------0---0-------2---2----------|
|---------------------------------------------3--------|
|------------------------------------------------------|
|------------------------------------------------------|
|-----0-----------------------1-----------0---0---1----|
|-----0---0---2---2---0---2---0---0---2---0-----0------|
|-----------2-----0-----0-----------0------------------|
|---0---0-------------------0---0----------------------|
|---------------1---1-------------------3---3----------|
REF:
  The road, she'd roll...
|------------------------------------------------------|
|-----------------0-----------0---0---1---1---0--------|
|-----2---0---2---0---0---2---0-----0-----0---0--------|  3x
|-----0-----0-----------0------------------------------|
|---------------------------0---0-------0---0----------|
|---1---1-------3---3----------------------------------|
   careenin' toward bein' alone...
|---------------------------------------|
|-----------------0-------0-------------|
|-----2---0---2---0---0-----------------|
|-----0-----0-----------0---------------|
|---------------------------------------|
|---1---1-------3---3-------------------|
|-----------------------------------------3------------|
|-----1---0---1---1---0---1---1---0---1---1------------|
|-----0-----0-----0-----0-----0-----0------------------|
|---2---2-------3---3-------0---0-------2---2----------|
|---------------------------------------------3--------|
|------------------------------------------------------|
|------------------------------------------------------|
|-----0-----------------------1-----------0---0---1----|
|-----0---0---2---2---0---2---0---0---2---0-----0------|
|-----------2-----0-----0-----------0------------------|
|---0---0-------------------0---0----------------------|
|---------------1---1-------------------3---3----------|

Verse2

Someday I'll find the mind to mend it... REF: The crow, he'd mow...

Bridge

|-----0-----------------------5-------3---3------------|
|---------0---1---3---0---3-------0-----------0---1----|
|-------0---0-------0---0-------0---0-------0---0------|
|---2-----------2-----------2-----------2--------------|
|------------------------------------------------------|
|------------------------------------------------------|
|-----0-----------------------3-------5---3------------|
|---------0---1---3---0---1-------0--------------------|
|-------0---0-------0---0-------0---0------------------|
|---2-----------2-----------2-----------2--------------|
|------------------------------------------------------|
|------------------------------------------------------|
REF: The oats we sow... END:
|-----------------------------------------3------------|
|-----1---0---1---1---0---1---1---0---1---1------------|
|-----0-----0-----0-----0-----0-----0------------------|
|---2---2-------3---3-------0---0-------2---2----------|
|---------------------------------------------3--------|
|------------------------------------------------------|
|------------------------------3-----------------------|
|-----0-------------------1----1---0---1---3-----------|
|-----0---0---2---2---0--------------0-----0-----------|
|-----------2-----0-----0----2---2---------------------|
|---0---0--------------------------------3-------------|
|---------------1---1----------------------------------|
Someday i'll toss all your presents and bury the letters left unsent cause it's bad to do what's easy just cause it's easy and i wanna do what pleases me but i can't the road, she'd roll round the side of the mountain with nowhere to go but the heart, we know, when it's needin it's careenin toward bein alone someday i'll find the mind to mend it and make dry these eyes i've gotten wet cause it's bad to do what's easy just cause it's easy i wanna do what pleases me but i can't the crow, he'd mow half the grass on the knoll with nowhere to go but the heart, we know, when it's lovin it's leanin toward bein alone the oats we sow, they could seed on forever with nowhere to grow but the heart, we know, when it's askin its exact twin it will not be alone