Gungor - Brother Moon Chords

 
         
         
         
         
X
3
2
1
3 fr
         
         
         
         
X
1
2
3
4
1
8 fr
         
         
         
         
1
3
4
2
1
1
3 fr
         
         
         
         
X
1
X
3
4
1
5 fr
         
         
         
         
3
2
1
1
1
4
10 fr
         
         
         
         
X
X
1
3
4
3

12 fr
         
         
         
         
X
4
3
1
2
1
3 fr
         
         
         
         
X
         
         
         
         
1
3
4
2
1
1
5 fr
         
         
         
         
X
4
3
1
2
1
3 fr
         
         
         
         
X
X
1
2
4
3
         
         
         
         
X
X
3
2
1
1
8 fr
         
         
         
         
X
1
3
3
3
1
10 fr
         
         
         
         
4
3
1
1
1
X

10 fr
         
         
         
         
3
2
1
1
1
4
         
         
         
         
X
2
3
1
5 fr
         
         
         
         
1
3
4
1
1
1
5 fr
         
         
         
         
X
X
1
1
1
8 fr
         
         
         
         
X
3
2
4
1
2 fr
         
         
         
         
X
1
4
4
4
7 fr
         
         
         
         
X
1
3
4
2

9 fr
         
         
         
         
X
4
3
1
2
X
12 fr
         
         
         
         
X
1
3
4
2
1
5 fr
         
         
         
         
X
         
         
         
         
3
2
4
3 fr
         
         
         
         
1
3
4
2
1
1
         
         
         
         
2
1
3
4
3 fr
         
         
         
         
X
X
3
2
1
1
5 fr
         
         
         
         
X
X
1
3
4
3
7 fr
         
         
         
         
X
4
3
1
2
1

10 fr
         
         
         
         
X
1
2
3
4
X
10 fr
         
         
         
         
X
1
3
3
3
1
12 fr
         
         
         
         
3
2
1
1
1
4
No chord
Standard guitar tuning:
E
A
D
G
B
E
No capo

Verse

2 Chorus Bridge x9* Key of C
Chords:

C F Am G

E----0-----------1------------0-------------3------------------------| B----1-----------1------------1-------------3------------------------| G----0-----------2------------2-------------0------------------------| D----2-----------3------------2-------------0------------------------| A----3-----------3------------0-------------2------------------------| E----------------1--------------------------3------------------------|

Intro

]
{Transposed from flute and violin (It might be a viola though)}*
E-15-12-15-12-15-12-15-12-15-12-15-12-15-12-15-12--------------------|
B--------------------------------------------------------------------|
G--------------------------------------------------------------------|
D--------------------------------------------------------------------|
A--------------------------------------------------------------------|
E--------------------------------------------------------------------|
E-15-12-13----12-----------------------------------------------------|
B----------15----13-15-13-10-12-8-10-6-8-10--------------------------|
G--------------------------------------------------------------------|
D--------------------------------------------------------------------|
A--------------------------------------------------------------------|
E--------------------------------------------------------------------|
E-15-12-13----12-----------------------------------------------------|
B----------15----13-15-13-10-12-8-10-6-8-10--------------------------|
G--------------------------------------------------------------------|
D--------------------------------------------------------------------|
A--------------------------------------------------------------------|
E--------------------------------------------------------------------|

Verse

1&2](Guitar) Repeat through verses*
E--------------------------------------------------------------------|
B---------------------------------------------6----------------------|
G-5-5-5-5-5-5-5-5-5-5-5-5-5-5-5-5-5-5-5-5-5-5---5-5-5-5-5------------|
D--------------------------------------------------------------------|
A--------------------------------------------------------------------|
E--------------------------------------------------------------------|

Verse

1] BCrother moon shine down your light on us tonight Show us the love of GFod CSister Sun you bring out the day you're shining the light Of God on your face tFoday

Chorus

GMaker of it aFll GYou provide it aFll CIn You we live CIn You we move CIn You we have our beFing CYou're glorious CYou're holding us togeFther all together

Verse

2 (Piano)
E--------------------------------------------------------------------|
B--------1--------1--------1--------1--------1--------1--------1-----|
G------0--------0--------0--------0--------0--------0--------2-------|
D----2--------2--------2--------2--------2--------2--------3---------|
A--3--------3--------3--------3--------3--------3--------3-----------|
E--------------------------------------------------------------------|
E--------------------------------------------------------------------|
B--------1-------1-------1-------------------------------------------|
G------2-------2-------2---------------------------------------------|
D----3-------3-------3-----------------------------------------------|
A--3-------3-------3-------------------------------------------------|
E--------------------------------------------------------------------|

Verses

2] CBrother Wind your clouds and your storms you’re breathing the breath of God in your lungs for Fus MCother Earth, you're giving us life with God's open hand you Always provide for Fus

Chorus

Bridge

(piano) Repeat through bridge*
E--------13-12---------------13-12----15-13-12-----------------------|
B--13-15-------15-13---13-15-------15------------------13-13-13-13---|
G----------------------------------------------------at end of song*-|
D--------------------------------------------------------------------|
A--------------------------------------------------------------------|
E--------------------------------------------------------------------|

Bridge

CYou are everything good, yCou are everything beaGutiful Cyou are everything, yCou're every God Bless. :)