Guns N' Roses - Heartbreak Hotel Chords

 
No chord
Standard guitar tuning:
E
A
D
G
B
E
No capo
E|-----------------------------------------------------------------------12-13-------------------|
B|------15--15-15------13 15------15--- 15--- 15 -----13--------15------15 13-12-----------------|
G|--14--------------14-----------14--------------------14--------14----------------------14--12--|
D|-----------------------------------------------------------------------------------------------|
A|-----------------------------------------------------------------------------------------------|
E|-----------------------------------------------------------------------------------------------|
well since my ba -by left me I found a new place to dwell
its down at the inn      of lone    -ly  street thats
type feel next
e|--------------------------------------------------------------------------|
B|--------------------------------------------------------------------------|
G|--------------------------------------------------------------------------|
D|------------0-0-0-0-0-0-0-0-(Or)------------------------------------------|
A|--0-----3----------------------------0---3---5-5-5-5-5-5-5-5-5-5-5-5------|
E|--------------------------------------------------------------------------|
W/Slappin on the D noteDo that about four times and at the second enter the high hats closed of course and have one guitar slam a D chord with his hands once and let the feed back do the rest, while another is still doing it three more times, at the fourth time the bass is doing the riff A enter the cow bell. Then D chord strumming at a tempo of 160 and hard rock and also maybe some G, the solo is a different story, I'll attack it next time! Till then, keep on rockin'!!!!Well since my baby left meI found a new place to dwellIt's down at the end of lonely streetThat's Heartbreak HotelWell I'll be lonelySo fucking lonelyI'll be so lonelyI could cry