Guns N' Roses - You Ain't The First Chords

Main Riff
Main Riff
Main Riff
 
         
         
         
         
         
2
3
1
4 fr
         
         
         
         
         
X
4
3
1
2
1
7 fr
         
         
         
         
         
X
1
4
4
4
X
2 fr
         
         
         
         
         
X
X
1
2
4
3
4 fr
         
         
         
         
         
4
3
1
2
1
7 fr
         
         
         
         
         
X
1
3
3
3
1

9 fr
         
         
         
         
         
4
3
1
1
1
X
9 fr
         
         
         
         
         
3
2
1
1
1
4
12 fr
         
         
         
         
         
1
3
4
2
1
1
4 fr
         
         
         
         
         
X
         
         
         
         
         
X
1
2
3
5 fr
         
         
         
         
         
1
3
4
2
1
1
2 fr
         
         
         
         
         
X
1
1
1
4
         
         
         
         
         
X
X
1
2
2 fr
         
         
         
         
         
3
2
1
1
1
4
7 fr
         
         
         
         
         
X
X
1
3
4
3

9 fr
         
         
         
         
         
X
4
3
1
2
1
12 fr
         
         
         
         
         
X
1
3
3
3
1

A

variations
4 fr
         
         
         
         
         
1
3
4
2
1
1
4 fr
         
         
         
         
         
X
X
3
2
1
1
6 fr
         
         
         
         
         
X
X
1
2
4
3
         
         
         
         
         
3
2
1
1
1
4
8 fr
         
         
         
         
         
X
4
3
1
2
1
11 fr
         
         
         
         
         
X
1
2
3
4
X

11 fr
         
         
         
         
         
X
1
3
3
3
1
7 fr
         
         
         
         
         
1
3
4
2
1
1
         
         
         
         
         
X
2
1
X
3
         
         
         
         
         
X
1
4
4
4
X
         
         
         
         
         
X
1
3
3
3
1
4 fr
         
         
         
         
         
4
3
1
1
1
X
4 fr
         
         
         
         
         
3
2
1
1
1
4

9 fr
         
         
         
         
         
X
X
1
3
4
3
11 fr
         
         
         
         
         
X
4
3
1
2
1

Fm

variations
         
         
         
         
         
1
3
4
1
1
1
4 fr
         
         
         
         
         
X
X
1
3
4
2
         
         
         
         
         
X
X
3
1
1
1
9 fr
         
         
         
         
         
X
1
3
4
2
1
6 fr
         
         
         
         
         
X
4
3
1
2
X
No chord
Standard guitar tuning:
E
A
D
G
B
E
No capo
E A A A^ B Fm
022100   002220    466544   577655  79987  244222
E                         A                     E
------------------------|----------------------|---------0----0---2----|
------------12-----14---|--9----------2----0---|-2---------------------|
--13--------------------|----------------------|-----------------------|
------------------------|----------------------|-----------------------|
------------------------|----------------------|-----------------------|
------------------------|----------------------|-----------------------|
I tried so hard just to get through to you
A                        E                      A
--0---------------------|----------------------|-----------------------|
------------------------|-----------12----14---|--9-----------2----0---|
------------------------|---13-----------------|-----------------------|
------------------------|----------------------|-----------------------|
------------------------|----------------------|-----------------------|
------------------------|----------------------|-----------------------|
But your head's so far from the
E                        A                      E
-----------0------2-----|-0--------------------|---9---7---------------|
---2--------------------|----------------------|---------9---7--9---7--|
------------------------|----------------------|-----------------------|
------------------------|----------------------|-----------------------|
------------------------|----------------------|-----------------------|
------------------------|----------------------|-----------------------|
real  - ness     of      truth                   Was  it just a come on

A E

-------------0----------|--------0------2------|--0----------------9---| ---9---7----------------|--2-------------------|-----------------------| ------------------------|----------------------|-----------------------| ------------------------|----------------------|-----------------------| ------------------------|----------------------|-----------------------| ------------------------|----------------------|-----------------------|
in the dark, wasn't meant to last long I
E                         A                     E
--9---7-----------------|-------------0--------|----------0------2-----|
--------9---7--9---7----|---9---7--------------|--2--------------------|
------------------------|----------------------|-----------------------|
------------------------|----------------------|-----------------------|
------------------------|----------------------|-----------------------|
------------------------|----------------------|-----------------------|
think you're worn your welcome, honey l'll just sing you a -
A
--0---------------------|-------------2-4------|--------0--------------|
------------------------|----------------------|-----------------------|
------------------------|----------------------|-----------------------|
------------------------|----------------------|-----------------------|
------------------------|----------------------|-----------------------|
------------------------|----------------------|-----------------------|
long As l sing you this song
-------------------------|--12-----------------|-----------------------|
----------------11---12--|---------------------|--11--12---11------10--|
-------------------------|---------------------|-----------------------|
-------------------------|---------------------|-----------------------|
-------------------------|---------------------|-----------------------|
-------------------------|---------------------|-----------------------|
One, Two, Three, One,
-------------------------|--0------------------|-----------------------|
---------14----12--------|---------------------|--14--12---------------|
--------------------13---|---------------------|-------------------11--|
-------------------------|---------------------|-----------------------|
-------------------------|---------------------|-----------------------|
-------------------------|---------------------|-----------------------|
-------------------------|
-------------------------|
--13---------------------|
-------------------------|
-------------------------|
-------------------------|
Two Three and So, Chorus E A A^ B Good-bye to you, girl. So long, fare-well E A A^ B I cant hear ya cryin' Your jivin's been hell E A A^ E So Look for me Walkin' down your street at night A A^ B I'll be in with another deep down in - side ADeep dAown Fmin - sEide Additional Lyrics Time can pass slowly things always change Your day's been numbered and I've read your last page You was just a temporary lover, honey you aint the first Lots of others came before you woman, said, but you're been the worst Said, you're been the worst. Chorus.