Gustavo Cerati - Tu Cicatriz En Mi Chords

 
No chord
Standard guitar tuning:
E
A
D
G
B
E
No capo
e ----------------------      ------------------
b ----------------------      ------------------
g -----6-/-3-----1------      -------3-------5--
D ---8---------0-------- x 3  -----4-------6----
A -6---------2----------      ------------------
E ----------------------      --2--------4------
No juràbamos por nada màs, que arrancarnos la maleza de una vez
Me quedè boqueando como un pez, nadie nos borrò tu cicatriz en mì
--2--------4-----/--7---7------
Si mayor (charangueo)
e -------------------------------------------  ----------------
b ------6------4------6------4------6------4-  ----------------
g -------------------------------------------  -----3--------5- Re# 7/9
D ----6------4------6------4------6------4---  ---4--------6---
A -------------------------------------------  ----------------
E --4------2------4------2------4------2-----  --2--------4----
Osadìa loca, husmear en tus cosas, duele de placer tu cicatriz en mì Ey, dejame estrellarme en vos, cocinarme lento como Icaro en el sol. Desde que te amè, nunse borrò tu cicatriz en mì.
En este estribillo cambia --------- por ------4--
                          ------4--     ---------
                          ---------     ----3----
                          ----4----     ---------
                          ---------     ---------
                          -2-------     -2-------
y al final, retoma un arpegio, pero ya no es el mismo de las estrofas, sino que cambia.
e ----------------------      ------------------
b ----------------------      ------------------
g -----6------5---------      -------3-------5--
D ---8------4----------- x 3  -----4-------6----
A -6------6-------------      ------------------
E ----------------------      --2--------4------
y asì hasta el fade out... \______/ \x_____/
 7000000        6|00000
  |||0||         ||||||
  |00|||         ||0|||
Si Re# 7/9