Hedley - 321 Chords

Main Riff
Main Riff
 
No chord
    
Standard guitar tuning:
E
A
D
G
B
E
No capo
                          Intro
-----------------------------------------------------------------|
 ----------------------------------------------------------------|
 ----------------------------------------------------------------|
 --10-10-9-9-8-7----3-3-2-1-0------------------------------------|
 --10-10-9-9-8-7----3-3-2-1-0------------------------------------|
 --10-10-9-9-8-7----3-3-2-1-0------------------------------------|
                    Verse
----------------------------------------------------------------|
----------------------------------------------------------------|
----------------------------------------------------------------|
--10-----5-----3------------------------------------------------|
--10-X16-5-X16-3--X16-------------------------------------------|
--10-----5-----3------------------------------------------------|
                     2nd Verse
----------------------------------------------------------------|
----------------------------------------------------------------|
------------------------3-3-2-2-3-3-2-2-------------------------|
--10-----5-----3--------3-3-3-3-3-3-3-3-------------------------|
--10-X16-5-X16-3--X16---2-2-2-2-2-2-2-2-------------------------|
--10-----5-----3------------------------------------------------|
                    Pre Chorus
----------------------------------------------------------------|
----------------------------------------------------------------|
----------------------------------------------------------------|
--3------0-----7------5------3------2---------------------------|
--3--X8--0--X8-7--X8--5--X8--3--X8--2--X8------0000-2222-3-5----|
--3------0-----7------5------3------2------555------------------|
                       Chorus
---------------------------------------------------------------|
---------------------------------------------------------------|
---------------------------------------------------------------|
--3------10------7------5------3------10------12------3--------|
--3--X8--10--X8--7--X8--5--X8--3--X8--10--X8--12--X8--3--X8----|
--3------10------7------5------3------10------12------3--------|
----------------------------------------------------------------|
----------------------------------------------------------------|
----------------------------------------------------------------|
--10-----5------12------3---------------------------------------|
--10-X8--5--X8--12--X8--3--X8-----------------------------------|
--10-----5------12------3---------------------------------------|
                        2nd chorus
---------------------------------------------------------------|
---------------------------------------------------------------|
---------------------------------------------------------------|
--3------10------7------5------7------3------------------------|
--3--X8--10--X8--7--X8--5--X8--7--X8--3--X8--------------------|
--3------10------7------5------7------3------------------------|
                         Bridge
----------------------------------------------------------------|
----------------------------------------------------------------|
----------------------------------------------------------------|
--7-7-7---7------5-5-5---5------12-12-12---12-------------------|
--7-7-7---7------5-5-5---5------12-12-12---12-------------------|
--7-7-7---7------5-5-5---5------12-12-12---12-------------------|
Play order:

Intro x2

Verse

Pre chorus

Chorus

Verse x2

Pre Chorus 2nd chourus X2

Bridge

Pre chorus 2nd chourus X2

Intro x2

Enjoy playing 321