Hidden In Plain View - 20 Below Chords

 
         
         
         
         
         
3
2
4
3 fr
         
         
         
         
         
1
3
4
2
1
1
         
         
         
         
         
2
1
3
4
3 fr
         
         
         
         
         
X
X
3
2
1
1
5 fr
         
         
         
         
         
X
X
1
3
4
3
7 fr
         
         
         
         
         
X
4
3
1
2
1

10 fr
         
         
         
         
         
X
1
2
3
4
X
10 fr
         
         
         
         
         
X
1
3
3
3
1
12 fr
         
         
         
         
         
3
2
1
1
1
4
         
         
         
         
         
2
3
3 fr
         
         
         
         
         
X
X
2
4
1
7 fr
         
         
         
         
         
X
1
3
4
2
1
2 fr
         
         
         
         
         
X
X
1
3
4
2
3 fr
         
         
         
         
         
X
3
2
4
1
4 fr
         
         
         
         
         
X
4
3
1
2
X

12 fr
         
         
         
         
         
1
3
4
1
1
1
         
         
         
         
         
2
7 fr
         
         
         
         
         
X
1
3
1
2
1
         
         
         
         
         
X
X
1
3
2
2
         
         
         
         
         
1
2
4
4
         
         
         
         
         
2
3
4
         
         
         
         
         
2
4

3 fr
         
         
         
         
         
X
3
2
1
5 fr
         
         
         
         
         
X
2
1
3
1
4
7 fr
         
         
         
         
         
X
1
3
1
2
X
7 fr
         
         
         
         
         
X
1
3
1
2
4
12 fr
         
         
         
         
         
1
3
1
1
4
1
         
         
         
         
         
X
3
2
1
3 fr
         
         
         
         
         
X
1
2
3
4
1
8 fr
         
         
         
         
         
1
3
4
2
1
1
3 fr
         
         
         
         
         
X
1
X
3
4
1
5 fr
         
         
         
         
         
3
2
1
1
1
4
10 fr
         
         
         
         
         
X
X
1
3
4
3

12 fr
         
         
         
         
         
X
4
3
1
2
1
3 fr
         
         
         
         
         
X
7 fr
         
         
         
         
         
2
1
3
1
4
X
8 fr
         
         
         
         
         
1
3
1
2
1
4
         
         
         
         
         
X
X
1
3
2
2 fr
         
         
         
         
         
X
4
3
1
2
1
5 fr
         
         
         
         
         
X
1
2
3
4
1
5 fr
         
         
         
         
         
X
1
4
4
4
X
7 fr
         
         
         
         
         
4
3
1
1
1
X
7 fr
         
         
         
         
         
3
2
1
1
1
4

10 fr
         
         
         
         
         
1
3
4
2
1
1
12 fr
         
         
         
         
         
X
X
1
3
4
3
5 fr
         
         
         
         
         
X
X
         
         
         
         
         
X
2
4
7 fr
         
         
         
         
         
1
4
3
1
2
1
         
         
         
         
         
X
1
X
X
3
4
         
         
         
         
         
X
1
3
4
2 fr
         
         
         
         
         
X
1
4
3
2
X
No chord
Standard guitar tuning:
E
A
D
G
B
E
No capo
Key: G Chords used: Em - 022000 or Em7 - 022033 C - x32010 or C9 - x32033

Verse 1

Em This puzzled look you stare to Cme says "You put me back toGgether" Her head's Ddown she Cwaits impatientEmly Scattered in my Cheart torn up and ripped aGpart D It's Cripped apart
Guitar 2: Verse 1
e|----3---5---3-|
B|--3---3---3---|
G|--------------|
D|--------------| x8
A|--------------|
E|--------------|
Guitar 3: Verse 1
e|-------------3-|
B|-0-1-0-3-1-0---|
G|---------------|
D|---------------| x4
A|---------------|
E|---------------|

Verse 2

Bass enters Em And I know I should have known By the Ctimes she looked at me GBrace yourself Strength Dfinds a Cplace in me
Guitar 2: Verse 2
e|-2-----3-------|
B|---3-----0-----|
G|-----0-----0---|
D|---------------| x4
A|---------------|
E|---------------|
Guitar 3: Verse 2
e|-------------3-|
B|-0-1-0-3-1-0---|
G|---------------|
D|---------------| x4
A|---------------|
E|---------------|

Chorus

Em Just wait andC you'll see you're Geverything I want D And don't Ctake this from me Em Just wait andC you'll see you're Geverything I want D Don't take this Cfrom me now
Guitar 2: Chorus

Em C G D

e|-----|--------------|-----|---| B|-----|------3-1-0---|-----|---| G|-2h4-|-2h4--------0-|-2h4-|-2-| D|-----|--------------|-----|---| x2 A|-----|--------------|-----|---| E|-----|--------------|-----|---|
Guitar 3: Chorus
e|-2-2-2-2-3-3-3-3-5-5-5-5-3-3-3-3-----------|
B|-3-3-3-3-3-3-3-3-3-3-3-3-3-3-3-3-----------|
G|-------------------------------------------|
D|-------------------------------------------|
A|-------------------------------------------|
E|-------------------------------------------|
e|-3-2----3-2----3-2----3-2-5-7-----|
B|-----3------3------3----------7-8-|
G|----------------------------------|
D|----------------------------------|
A|----------------------------------|
E|----------------------------------|

Interlude

Em--C-- x2
Guitar 2: Interlude

Em C

e|-0-0-0-0-|-0-0-0-0-| B|-0-0-0-0-|-1-1-1-1-| G|-0-0-0-0-|-0-0-0-0-| D|-2-2-2-2-|-2-2-2-2-| A|-2-2-2-2-|-3-3-3-3-| E|-0-0-0-0-|---------|
    Em       C
e|-------|-------|
B|-----3-|-----3-|
G|-2h4---|-2h4---|
D|-------|-------|
A|-------|-------|
E|-------|-------|
Guitar 3: Interlude

Em C

e|-----7------10-|-----7------10-| B|-8------8------|-8------8------| G|---7------7----|---7------7----| D|---------------|---------------| A|---------------|---------------| E|---------------|---------------|
         Em                  C
e|-2--2h3p2---------|-2--2h3p2---------|
B|----------3--1--0-|----------3--1--0-|
G|------------------|------------------|
D|------------------|------------------|
A|------------------|------------------|
E|------------------|------------------|
x2 x2

Verse 3

Em With the wind strong in my Cface I'm still staggering Gthrough I'm closer to the Dground than I will Cever get to you Em Dirt deep beneath my Cfingernails I'm gripping to the Gfloor I'm searching through the Dworld always Clooking for something more

C

Interlude

Beat Will change from fast to slow Em---, Em--G--D--C-G/B x2
Guitar 2:

Em G D C G/B

e|----|---|---|---|------| B|----|---|---|---|------| G|----|---|---|-5-|-7--9-| D|----|---|---|-x-|-x--x-| A|----|---|---|-3-|-5--7-| E|----|---|---|---|------|
   Em   G      D       C   G/B
e|----|---|----------|----|----|
B|----|---|----------|----|----|
G|----|---|-7--9--11-|-17-|-16-|
D|----|---|-x--x---x-|--x-|--x-|
A|----|---|-5--7---9-|-15-|-14-|
E|----|---|----------|----|----|
Guitar 3: Effects

Bridge

Em And these Gcold winter nights withDout you next to me It Cfeels like G/Btwenty below Em Frostbite Gon my heart This Dpain and suffering are Cfeelings that G/Byou don't know

Verse 3

beat changes to fast again Em You Don't GKnow You Don't Dknow You Don't know these Cfeelings that G/Byou don't Emknow You Don't GKnow Does it Dfeel like C G/B Em--Em--Em-- It feels like 20 below

Outro

Em Just wait andC you'll see you're Geverything I wantD C Em