Hillsong United - My Future Decide Chords

 
         
         
         
         
         
X
X
1
5 fr
         
         
         
         
         
X
1
1
1
1
X
3 fr
         
         
         
         
         
X
X
5 fr
         
         
         
         
         
X
X

E/F

         
         
         
         
         
2
3
4
1
         
         
         
         
         
1
3
2
         
         
         
         
         
X
X
         
         
         
         
         
No chord
Standard guitar tuning:
E
A
D
G
B
E
No capo
e--------------------------------------------------|
B--------------------------------------------------|(x2)
G--------------------------------------------------|
D-11-11-------11-11----12-12-11-11--------9-9-9-9--|
A------9-9-9-9-----9-9------------12-(x12)---------|
E--------------------------------------------------|
e--------------------------------------|
B--------------------------------------|(x1)
G--------------------------------------|
D--------------------------------------|
A-2-2-------2-2----5-5-4-4-----2-2-2-2-|
E----4-4-4-4----4-4-------5(x12)-------|
e---------------------------------------|(x1)
B---------------------------------------|
G---------------------------------------|
D---------------------------------7-6-4-|
A-2-2-------2-2----5-5-4-4--------------|
E----4-4-4-4----4-4-------5-5-5-5s7-----|
My eyes on aC/Dll of the abovG/Ae My soul secE/Fure in all you've done My minds made C/Dup And you are the onG/Aly one for me D/E JeG/Asus, saviC/Dor, in my lifeE/F you are everything My fuG/Ature decidC/Ded, I will praiseE/F your name And I know that IC/D am, I amG/A yours D/E Yeah, I know that IC/D am, I amG/A yours [2nd lead intro part] You hold the eaE/Frth in your command You are the rG/Aock on which I stand And as I lC/Dive each dayG/A, I'll follow you E/F My eyes on aC/Dll of the abovG/Ae My soul secE/Fure in all you've done My minds made C/Dup And you are the onG/Aly one for me D/E JeG/Asus, saviC/Dor, in my life yE/Fou are everything My futG/Aure decidC/Ded, I will praise E/Fyour name And I know that I C/Dam, I aG/Am yours D/E Yeah, I know that IC/D am, I aG/Am yours D/E

Gui

E/FAren't afraid, aren't ashamed Lord we know who we are G/AWe are your people and we won't be silent E/FUnified hear us cry at the top of our lungs G/AYou our God and we will notD/E be shaken E/FAren't afraid, aren't ashamed Lord we know who we are G/AWe are your people and we won't be silent E/FUnified hear us cry at the top of our lungs G/AYou our God and we will notD/E be shaken JeG/Asus, saviC/Dor, in my life E/Fyou are everything My fuG/Ature decidC/Ded, I will praiseE/F your name And I know that IC/D am, I aG/Am yours D/E Yeah, I know that IC/D am, I aG/Am yours D/E And I know that IC/D am, I aG/Am yours D/E Yeah, I know that IC/D am, I aG/Am yours D/E