HIM - Heartkiller Chords

Main riff Riff
 
         
         
         
         
         
1
3
4
1
1
1
         
         
         
         
         
X
X
3
1
1
1
3 fr
         
         
         
         
         
X
X
1
3
4
2
8 fr
         
         
         
         
         
X
1
3
4
2
1
5 fr
         
         
         
         
         
X
4
3
1
2
X

A

variations
4 fr
         
         
         
         
         
1
3
4
2
1
1
4 fr
         
         
         
         
         
X
X
3
2
1
1
6 fr
         
         
         
         
         
X
X
1
2
4
3
         
         
         
         
         
3
2
1
1
1
4
8 fr
         
         
         
         
         
X
4
3
1
2
1
11 fr
         
         
         
         
         
X
1
2
3
4
X

11 fr
         
         
         
         
         
X
1
3
3
3
1

E

variations
3 fr
         
         
         
         
         
X
4
3
1
2
1
6 fr
         
         
         
         
         
X
1
2
3
4
1
         
         
         
         
         
X
X
1
2
4
3
3 fr
         
         
         
         
         
X
4
3
1
2
X
8 fr
         
         
         
         
         
4
3
1
1
1
X
8 fr
         
         
         
         
         
3
2
1
1
1
4

11 fr
         
         
         
         
         
1
3
4
2
1
1
3 fr
         
         
         
         
         
X
1
3
4
2
1
8 fr
         
         
         
         
         
1
3
4
1
1
1
         
         
         
         
         
X
3
1
X
X
         
         
         
         
         
X
4
1
2
X
8 fr
         
         
         
         
         
X
X
3
1
1
1
10 fr
         
         
         
         
         
X
X
1
3
4
2

12 fr
         
         
         
         
         
X
4
3
1
2
X

C

variations
4 fr
         
         
         
         
         
X
1
2
3
4
1
         
         
         
         
         
X
4
3
1
2
1
4 fr
         
         
         
         
         
X
1
4
4
4
X
6 fr
         
         
         
         
         
4
3
1
1
1
X
6 fr
         
         
         
         
         
3
2
1
1
1
4
9 fr
         
         
         
         
         
1
3
4
2
1
1

11 fr
         
         
         
         
         
X
X
1
3
4
3
No chord
Standard guitar tuning:
E
A
D
G
B
E
No capo

Intro

[Guitar 1]
Palm mute:     Fm  A           E
           e|------------------|-------------|
           B|--6-6-9-9-9-6-6-6-|-8-8-8-4---4-|
           G|------------------|---------5---|
           D|------------------|-------------|
           A|------------------|-------------|
           E|------------------|-------------|
               Fm  A            E Cm E
           e|------------------|---------|
           B|--6-6-9-9-9-6-6-6-|---------|
           G|------------------|--8\5/8--|
           D|------------------|--8\5/8--|
           A|------------------|--6\3/6--|
           E|------------------|--6\3/6--|
Main riff: Fm--A--E (2x for G1; 4x for G2)
[Guitar 1]
Solo
e|---------------------|--------------------------|
           B|----13--------15b----|----13--------------------|
           G|-10----10-13------15-|-10----10-13--12b----10---|
           D|---------------------|------------------13------|
           A|---------------------|--------------------------|
           E|---------------------|--------------------------|

Verse 1

Fm Farewell Eheartless world, Fm I'll send you a Epostcard burnt,

C A E--Cm

In flames You've tried so hard to extinguish with the fear of failing, Fm I'll write down everyEthing I have learned, Fm And edit it down to a Esingle word,

C---A

Lo---ve For Cmyou I'm waiting, anticipating

Chorus

FmSparks will fly beneath the Aluna alight, Lazarus at CFrankenstein's, babe I'll be a, A(break) Cm--E Flatliner for a... Heartkiller A Fmlittle we die above the Alesser light, For you I'm Copen wide, babe I'll be a, A(break) C--E Flatliner for a... Heartkiller Post chorus: Heartkiller

Verse 2

Fm Top hats Eoff to the return, Fm Of the beat to Elick a wound to,

C A E--Cm

Cursed for some and blessed for a few, Fm It doesn't have to Emake any sense at all, Fm Come hither and we'll Efall,

C---A C---A

In lo---ve, for lo---ve I'm Cmcrawling out of patience baby

Bridge

CPaint all your Esorrows for me to sing

Cm---Fm

Heartkiller CDraw your pain and Ehear me hum it Aout

Interlude

G3: e|----------------|
    B|--13----11------|
    G|-----13----12---|2x
    D|----------------|
    A|----------------|
    E|----------------|
G1 and G2: (same solo from the intro...)

E-------------

e|---------------------|--------------------|--------| B|----13--------15b----|----13-------15b----|-15b----| G|-10----10-13------15-|-10----10-13-----15-|-----15-| D|---------------------|--------------------|--------| A|---------------------|--------------------|--------| E|---------------------|--------------------|--------|

Cm------------------

e|--------|---------------|
B|-17b----|-17b-----18~~--|
G|-----17-|-----17--------|
D|--------|---------------|
A|--------|---------------|
E|--------|---------------|

Chorus

FmSparks will fly beneath the Aluna alight, Lazarus at CFrankenstein's, babe I'll be a, A(break) Cm--E Flatliner for a... Heartkiller A Fmlittle we die above the Alesser light, For you I'm Copen wide, babe I'll be a, A(break) Cm--E E E Flatliner for a... Heartkiller...killer...killer

Outro

Ad lib: Fm-A-C-A-Cm-E
e|-*13~~--13-11----------------------------------------------|
B|---------------13-11------11-------13b14~~-13-11----11-13--|
G|---------------------13~~----13-11---------------13--------|
D|-----------------------------------------------------------|
A|-----------------------------------------------------------|
E|-----------------------------------------------------------|
whoa... whoa... babe I'll be a,
e|--------------------------|
B|--11h13h11----------------|
G|-----------h13h12--8------|
D|--------------------------|
A|--------------------------|
E|--------------------------|
Flatliner for a... Heartkiller
e|--13~~--13-11----b16~~-16-15----------20-18-16-18-b20~~-|
B|--------------13-------------16-13/14-------------------|
G|--------------------------------------------------------|
D|--------------------------------------------------------|
A|--------------------------------------------------------|
E|--------------------------------------------------------|
whoa... whoa... babe I'll be a, Flatliner for a... Heartkiller.