The Hives - Won't Be Long Chords

Intro Riff
Chorus Riff
 
No chord
Standard guitar tuning:
E
A
D
G
B
E
No capo

Intro

For these you needed to keep hittin the string even if theres no chord, but just take fingers away from the neck and dampen the sound. The first chord is in between the first second beat of the bar, but you can probably hear where it comes in anyway.
E---------------------------------------------------------------------------|
B---------------------------------------------------------------------------|
G---------------------------------------------------------------------------|
D----66-66-6--1111-1111-11-999-99-9-444-44-4--------------------------------|
A----44-44-4--9-9--9-9--9--777-77-7-222-22-2--------------------------------|
E---------------------------------------------------------------------------|
Just keep that going through the verse until he says "Or you hate what you become" and he holds the end of the become just let the last chord ring out. The chorus comes in when he says "Got me a ticket!" and just keep hittin the same chords the 1-2-3-4 beat.

Chorus

Twice)
E---------------------------------------------------------------------------|
B---------------------------------------------------------------------------|
G---------------------------------------------------------------------------|
D----6666--11111111--9999--4444---------------------------------------------|
A----4444--9-9-9-9---7777--2222---------------------------------------------|
E---------------------------------------------------------------------------|
Then the second verse chords are the same pattern and rhythm as the intro and the first It's just another chorus, again going twice round, after that chorus wait for a count of as soon as he says "Well I won't be around for the good times" just play each chord once the chimeing in the background changes.So it'd go lyk this.
E---------------------------------------------------------------------------|
B---------------------------------------------------------------------------|
G---------------------------------------------------------------------------|
D-----6----11----9----4-----------------------------------------------------|
A-----4----9-----7----2-----------------------------------------------------|
E---------------------------------------------------------------------------|
Then when the drums and lead guitar kick in, just play what you play for the chorus he says "And I won't be back again..." as soon as he starts saying that, just play...
E---------------------------------------------------------------------------|
B---------------------------------------------------------------------------|
G---------------------------------------------------------------------------|
D---------------------------------------------------------------------------|
A------------6-6-6-6--------------------------------------------------------|
E------------4-4-4-4--------------------------------------------------------|
when he says "And I won't be back again..." When he holds the "Again" wait the same of time you just did and then go into a chorus again. At the end of that chorus, wait for bars whilst the chimes and the bass are playing, then come in with a verse for another bars and end on a ringing chord that you started with. So the last part would look lyk this...
E---------------------------------------------------------------------------|
B---------------------------------------------------------------------------|
G---------------------------------------------------------------------------|
D----6666--11111111--9999--4444--6------------------------------------------|
A----4444--9-9-9-9---7777--2222--4------------------------------------------|
E---------------------------------------------------------------------------|
Still letting the last chord ring out. Anyway thats the chords, riff to follow, it's pretty simple anyhow lol cya people.