Hole - Mrs Jones Chords

 
No chord
    
Standard guitar tuning:
E
A
D
G
B
E
No capo

Intro riff

E -0-3-0-3-3---------|-0-3-0-3-3----------

Verse

A -12-12-12-12-------|-12-12-12-12-------- A -11-11-11-11-------|-11-11-11-11-------- A -10-10-10-10-------|-10-10-10-10--------
A -9-9-9-9-----------|-9-9-9-9-9----------

Chorus

A -5-5-5-5---5-------|-7/8-7--------------
Repeat Verse: A -12-12-12-12-------|-12-12-12-12-------- A -11-11-11-11-------|-11-11-11-11-------- A -10-10-10-10-------|-10-10-10-10--------
A -9-9-9-9-----------|-9-9-9-9-9----------

Bridge

A -12-12-12-12-12----|-10-10-10--10-10----
A -5-5-5-5-5---------|-7-7-7-7-7----------
E -6--6-6-6-6--------|--------------------
repeat verse and chorus
E -0-3-0-3-3---------|-0-3-0-3-3----------
A -slide down--13---------|------------