The Hollies - Crimson And Clover Chords

 
No chord
Standard guitar tuning:
E
A
D
G
B
E
No capo
E--------2-2---1-1---------2-2---1-1-------2-2---1-1----|
B--1-1---2-2---1-1---1-1---2-2---1-1--1-1--2-2---1-1----|
G--------------2-2---------------2-2-------------2-2----|
D--2-2---------3-3---2-2---------3-3--2-2--------3-3----| Repeat as Song goes
A--3-3---2-2---3-3---3-3---2-2---3-3--3-3--2-2---3-3----|
E--------3-3---1-1---------3-3---1-1-------3-3---1-1----|
Chorus/ Bridge
E-----------------22-22-22-22------------|
B--11-11-11-11-11-22-22-22-22------------|
G----------------------------------------|
D--22-22-22-22-22------------------------|
A--33-33-33-33-33-22-22-22-22------------|
E-----------------33-33-33-33------------|
I'll Let You FIgure Out The Rhythm For The Second Part