Hoobastank - What Happened To Us Acoustic Chords

 
No chord
Standard guitar tuning:
E
A
D
G
B
E
No capo

Verse 1

]
I thought it was too good to be true
e|-2-------------0--------0-----2----|
B|-3-------------0--------3-----3----|
G|-4-------------0--------2-----2----|
D|-4-------------0--------0-----0----|
A|-2-------------2--------0-----0----|
E|-2-------------3--------0-----0----|
I found somebody who understands me
e|---------2-----------------------2|
B|---------2-----------------------3|
G|---------3-----------------------4|
D|---------4-----------------------4|
A|---------4-----------------------2|
E|---------2-----------------------2|
Someone who would help me to get through
e|-2--------------2--------------3------|
B|-3--------------3--------------3------|
G|-4--------------2--------------0------|
D|-4--------------0--------------0------|
A|-2--------------0--------------2------|
E|-2--------------0--------------3------|
And fill an emptiness i had inside me
e|-------5---------------------------|
B|-------5---------------------------|
G|-------6---------------------------|
D|-------7---------------------------|
A|-------7---------------------------|
E|-------5---------------------------|
   But you kept inside and I just denied
e|-2---------------2----------------3-|
B|-3---------------3----------------3-|
G|-4---------------2----------------0-|
D|-4---------------0----------------0-|
A|-2---------------0----------------2-|
E|-2---------------0----------------3-|
Some things that we should have both said
e|-3----------------5--------------------|
B|-3----------------5--------------------|
G|-0----------------6--------------------|
D|-0----------------7--------------------|
A|-2----------------7--------------------|
E|-3----------------5--------------------|
I knew it was too good to be true
e|-2----------2--------------3----------|
B|-3----------3--------------3----------|
G|-4----------2--------------0----------|
D|-4----------0--------------0----------|
A|-2----------0--------------2----------|
E|-2----------0--------------3----------|
Cause i'm the only one who understands me
e|-3----------5----------------------------|
B|-3----------5----------------------------|
G|-0----------6----------------------------|
D|-0----------7----------------------------|
A|-2----------7----------------------------|
E|-3----------5----------------------------|

Chorus

]
What happened to us
e|-2-2-2-2-2-x-----x-x-x-------------|
B|-3-3-3-3-3-x-----x-x-x-------------|
G|-4-4-4-4-4-x-----x-x-x-------------|
D|-4-4-4-4-4-x-----x-x-x-------------|
A|-2-2-2-2-2-x-----x-x-x-------------|
E|-2-2-2-2-2-x-----x-x-x-------------|
We used to be so..... perfect,   now we're lost and lonely
e|-2-2-2-2-2-x--x-x-x-3-3-3-3-x--5-5-5-5-x-x-x---------------|
B|-3-3-3-3-3-x--x-x-x-3-3-3-3-x--5-5-5-5-x-x-x---------------|
G|-4-4-4-4-4-x--x-x-x-4-4-4-4-x--6-6-6-6-x-x-x---------------|
D|-4-4-4-4-4-x--x-x-x-5-5-5-5-x--7-7-7-7-x-x-x---------------|
A|-2-2-2-2-2-x--x-x-x-5-5-5-5-x--7-7-7-7-x-x-x---------------|
E|-2-2-2-2-2-x--x-x-x-3-3-3-3-x--7-7-7-7-x-x-x---------------|
What happened to us
e|-2-2-2-2-2-x-----x-x-x-------------|
B|-3-3-3-3-3-x-----x-x-x-------------|
G|-4-4-4-4-4-x-----x-x-x-------------|
D|-4-4-4-4-4-x-----x-x-x-------------|
A|-2-2-2-2-2-x-----x-x-x-------------|
E|-2-2-2-2-2-x-----x-x-x-------------|
And deep inside I wonder, did i lose my only?
e|-2-2-2-2-2-x--x-x-x-3-3-3-3-x--5-5-5-5-x-x-x---------------|
B|-3-3-3-3-3-x--x-x-x-3-3-3-3-x--5-5-5-5-x-x-x---------------|
G|-4-4-4-4-4-x--x-x-x-4-4-4-4-x--6-6-6-6-x-x-x---------------|
D|-4-4-4-4-4-x--x-x-x-5-5-5-5-x--7-7-7-7-x-x-x---------------|
A|-2-2-2-2-2-x--x-x-x-5-5-5-5-x--7-7-7-7-x-x-x---------------|
E|-2-2-2-2-2-x--x-x-x-3-3-3-3-x--7-7-7-7-x-x-x---------------|

Verse 2

] Remember they thought we were too young To really know what it takes to make it But we had survived off what we have done So we could show them all that they're mistaken But who could have known the lies that would grow Until we could see right through them Remember they knew we were too young We still don't know what it takes to make it

Chorus

play this before the bridge:
e|-2-2-2-2-2-x-----x-x-x-------------| x4
B|-3-3-3-3-3-x-----x-x-x-------------|
G|-4-4-4-4-4-x-----x-x-x-------------|
D|-4-4-4-4-4-x-----x-x-x-------------|
A|-2-2-2-2-2-x-----x-x-x-------------|
E|-2-2-2-2-2-x-----x-x-x-------------|

Bridge

]
We could have made it work, we could have found a way,
e|-2-2-2-2-2----------------0-0-0-0-0-------------0-0-0-0-0-----|
B|-3-3-3-3-3----------------2-2-2-2-2-------------0-0-0-0-0-----|
G|-2-2-2-2-2----------------2-2-2-2-2-------------1-1-1-1-1-----|
D|-0-0-0-0-0----------------2-2-2-2-2-------------2-2-2-2-2-----|
A|-0-0-0-0-0----------------0-0-0-0-0-------------2-2-2-2-2-----|
E|-0-0-0-0-0----------------0-0-0-0-0-------------0-0-0-0-0-----|
We should have done our best to see another day
e|------------------0-0-0-0-0-------------0-0-0-0-0-----|
B|------------------2-2-2-2-2-------------0-0-0-0-0-----|
G|------------------2-2-2-2-2-------------1-1-1-1-1-----|
D|------------------2-2-2-2-2-------------2-2-2-2-2-----|
A|------------------0-0-0-0-0-------------2-2-2-2-2-----|
E|------------------0-0-0-0-0-------------0-0-0-0-0-----|
But we kept it all inside until it was too late
e|------------------0-0-0-0-0-------------0-0-0-0-0-----|
B|------------------2-2-2-2-2-------------0-0-0-0-0-----|
G|------------------2-2-2-2-2-------------1-1-1-1-1-----|
D|------------------2-2-2-2-2-------------2-2-2-2-2-----|
A|------------------0-0-0-0-0-------------2-2-2-2-2-----|
E|------------------0-0-0-0-0-------------0-0-0-0-0-----|
And now we're both alone, the consequence we payyyyyyyyyyyy!
e|------------------0-0-0-0-0-------------2-2-2-2-2---2-2-2-2---0-0-0-0----|
B|------------------2-2-2-2-2-------------3-3-3-3-3---2-2-2-2---0-0-0-0----|
G|------------------2-2-2-2-2-------------4-4-4-4-4---3-3-3-3---1-1-1-1----|
D|------------------2-2-2-2-2-------------4-4-4-4-4---4-4-4-4---2-2-2-2----|
A|------------------0-0-0-0-0-------------2-2-2-2-2---4-4-4-4---2-2-2-2----|
E|------------------0-0-0-0-0-------------2-2-2-2-2---2-2-2-2---0-0-0-0----|
e|-2-2-2-2-2-x-----x-x-x---2-2-2-2-2------|
B|-3-3-3-3-3-x-----x-x-x---2-2-2-2-2------|
G|-4-4-4-4-4-x-----x-x-x---3-3-3-3-3------|
D|-4-4-4-4-4-x-----x-x-x---4-4-4-4-4------|
A|-2-2-2-2-2-x-----x-x-x---4-4-4-4-4------|
E|-2-2-2-2-2-x-----x-x-x---2-2-2-2-2------|
then play this as a chords
what happened to us?
e|-2-----------|
B|-3-----------|
G|-4-----------|
D|-4-----------|
A|-2-----------|
E|-2-----------|
we used to be so perfect
e|-2-------------3-------|
B|-3-------------3-------|
G|-2-------------0-------|
D|-0-------------0-------|
A|-0-------------2-------|
E|-0-------------3-------|
now we lost and lonely
e|-5-----------|
B|-5-----------|
G|-6-----------|
D|-7-----------|
A|-7-----------|
E|-5-----------|

Outro

what happened to us x4
e|-2-2-2-2-2-x-----x-x-x-------------| x4
B|-3-3-3-3-3-x-----x-x-x-------------|
G|-4-4-4-4-4-x-----x-x-x-------------|
D|-4-4-4-4-4-x-----x-x-x-------------|
A|-2-2-2-2-2-x-----x-x-x-------------|
E|-2-2-2-2-2-x-----x-x-x-------------|