Hot Water Music - Moonpies For Misfits Chords

 
No chord
Standard guitar tuning:
E
A
D
G
B
E
No capo
G--------------7p6---------9-------------|
D------9p7-------------7h9---6-----------|
A0-0-0-----0-0-----0-0-------------------|      VERSE x 10
E----------------------------------------|
G--------------------------------------------------------|
D---------------------9-9-9------------------------------|Chorus x 4
A-9-9-9-12-11-9-7-7-7-------5-5-5-5-5-5-5-12-11-7--------|
E--------------------------------------------------------|
there is a chorus variation that on the a string goes from 3 times on the fifth fret to back to another 3 times on the fifth and then to 12-11-14 on the A String repeat the verse some more (don't know exactly how many times) then back to the chorus
after the chorus play this 4 times
G--------------------------------------------|
D--------------------------------------------|
A0-0-0-0-0-0-2-2-2-4-4-4-----------5-5-5-4-2-|
E------------------------2-2-2-2-2-----------|
then this 8 times
G----------------------------------------------------|
D----------------------------------------------------|
A-------------------------5-4-0-5-4-0-5-4-0-7-5-4----|
E2-2-2-5-4-2-0-0-0--7-7-7----------------------------|
then
G----------------------------------------|
D----------------------------7----7------|
A2-2-2-2-2-4-5-5-5-5-4-2-0-7---0-7-------|
E----------------------------------------|
and end on
G-------------------------------------------|
D-------------------------------------------|
A0*-----------------------------------------|
E-------------------------------------------|