Howie Day - Collide Chords

Main Riff
Main Riff
 
No chord
Standard guitar tuning:
E
A
D
G
B
E
No capo
Verse and Chorus:
e |-------3-------3-------3-------3-------|
B |-------3-------3-------3-------3-------|
G |-------0-------2-------0-------0-------|
D |-------0-------0-------2-------2p0h2---|
A |-------2-------0-------2---3---3-------|
E |---3---3---2---2---0---0-------x-------|

Bridge

e |--------3-----------3----2-------------|
B |--------3-----------1----3-------------|
G |--------0-----------0----2-------------|
D |-----2--2-------2---2----0-------------|
A |--2-----2---3-------3----0-------------|
E |--------0-----------x----x-------------|
Lyrics: The dawn is breaking A light shining through You're barely waking And I'm tangled up in you Yeah I'm open, you're closed Where I follow, you'll go I worry I won't see your face Light up again Even the best fall down sometimes Even the wrong words seem to rhyme Out of the doubt that fills my mind I somehow find You and I collide I'm quiet you know You make a frist impression I've found I'm scared to know I'm always on your mind Even the best fall down sometimes Even the stars refuse to shine Out of the back you fall in time I somehow find You and I collide (Bridge starts) x 3 Don't stop here I lost my place Im close behind Even the best fall down sometimes Even the wrong words seem to ryhme Out of the doubt that fills your mind You finally find You and I collide You finally find You and I collide You finally find You and I collide