Idlewild - You Held The World In Your Arms Chords

Intro Riff
 
No chord
Standard guitar tuning:
E
A
D
G
B
E
No capo

Intro 2x

e|----------------------------------
B|----------------------------------
G|--6-------9-------4-------2-----2-
D|--6-------9-------4-------2-----0-
A|--4-------7-------2-------0-----2-
E|--X-------X-------X-------X-----X-

Verse

Every face    even... yesterday...  today...
e|----------------------------------------------------
B|----------------------------------------------------
G|----6-------2---2---6-------2---2---6-------2---2---
D|----6-------2---0---6-------2---0---6-------2---0---
A|----4-------0---2---4-------0---2---4-------0---2---
E|----X-------X---X---X-------X---X---X-------X---X---
since yesterday...    way...        today...
e|----------------------------------------------------
B|----------------------------------------------------
G|----6-------2---2---6-------2---2---6-------2---2---
D|----6-------2---0---6-------2---0---6-------2---0---
A|----4-------0---2---4-------0---2---4-------0---2---
E|----X-------X---X---X-------X---X---X-------X---X---
Pre-Verse:
    ...it's con-sideration...
e|----------------------------------
B|----------------------------------
G|--4-------2---2---4-------2---2---
D|--4-------2---0---4-------2---0---
A|--2-------0---2---2-------0---2---
E|--X-------X---X---X-------X---X---
      ...of con-sideration...
e|----------------------------------
B|----------------------------------
G|--4-------2---2---4-------2---2---
D|--4-------2---0---4-------2---0---
A|--2-------0---2---2-------0---2---
E|--X-------X---X---X-------X---X---

Chorus 2x

Same As Intro):
...held the world.. arms  tonight
e|----------------------------------
B|----------------------------------
G|--6-------9-------4-------2-----2-
D|--6-------9-------4-------2-----0-
A|--4-------7-------2-------0-----2-
E|--X-------X-------X-------X-----X-
That's all you need to know, the pattern pretty much repeats.