Iggy Pop - Miss Argentina Chords

 
No chord
Standard guitar tuning:
E
A
D
G
B
E
No capo

Verse

part A)
e|----0---0-------0---0---|----0---0--------0---0---|
B|----8---8-------8---8---|----10--10-------10--10--|
G|----9---9-------9---9---|----9---9--------9---9---|
D|----9---9-------9---9---|----9---9--------9---9---|
A|----7---7-------7---7---|----7---7--------7---7---|
E|0-----------0-----------|0------------0-----------|

Verse

part B)
e|----0-------0------0-------0---|----0---0---0---0---0---0---0---0---0---0---0--|
B|----0-------0------0-------0---|----0---0---0---0---0---0---0---0---0---0---0--|
G|----4-------4------4-------4---|----4---4---4---4---4---4---4---4---4---4---4--|
D|--5---5---5--5---5---5---5---5-|--5---5---5---5---4---4---4---4---4---4---4---4|
A|7-------6------5-------4-------|3-----------------2---2---2---2---2---2---2---2|
E|-------------------------------|-----------------------------------------------|

Chorus

e|0-00-00-0-00-00-2-2-3-0-0-00-00-|0-00-00-0-00-00-2-2-3-2-0-------|
B|1-11-11-0-00-00-2-2-0-2-0-00-00-|1-11-11-0-00-00-2-2-0-2-0-------|
G|4-44-44-0-00-00-4-4-0-2-0-00-00-|4-44-44-0-00-00-4-4-0-4-0-------|
D|2-22-22-2-22-22-4-4-0-0-2-22-22-|2-22-22-2-22-22-4-4-0-4-2-------|
A|0-00-00-2-22-22-4-4-2-0-2-22-22-|0-00-00-2-22-22-2-2-2-2-2-------|
E|--------0-00-00-2-2-3---0-00-00-|--------0-00-00-2-2-3-2-0-------|