Incubus - Aqueous Transmission Chords

 
No chord
Standard guitar tuning:
E
A
D
G
B
E
No capo
There is only one bass riff.I play it on a 4-string, but i think it was
recorded with a 5.For a 4-string, drop to D. For 5 leave it in standard4-string
G|----------------------------------|
D|----------------------------------|
A|----5-5-555---7-------------------|
D|------------------9---0-----------|
5-string
G|----------------------------------|
D|----------------------------------|
A|----5-5-555---7-------------------|
E|-------------------7--------------|
B|----------------------3-----------|