Indigo girls - Walk Away Chords

 
         
         
         
         
         
2
3
1
4 fr
         
         
         
         
         
X
4
3
1
2
1
7 fr
         
         
         
         
         
X
1
4
4
4
X
2 fr
         
         
         
         
         
X
X
1
2
4
3
4 fr
         
         
         
         
         
4
3
1
2
1
7 fr
         
         
         
         
         
X
1
3
3
3
1

9 fr
         
         
         
         
         
4
3
1
1
1
X
9 fr
         
         
         
         
         
3
2
1
1
1
4
12 fr
         
         
         
         
         
1
3
4
2
1
1
4 fr
         
         
         
         
         
X
         
         
         
         
         
X
1
3
1
2
1
7 fr
         
         
         
         
         
1
3
1
1
1
1
         
         
         
         
         
X
1
X
2
4
3
         
         
         
         
         
X
1
2
3
7 fr
         
         
         
         
         
1
X
1
1
1
X
2 fr
         
         
         
         
         
X
1
3
1
2
4

7 fr
         
         
         
         
         
1
3
1
1
4
1
9 fr
         
         
         
         
         
X
X
1
3
2
2
12 fr
         
         
         
         
         
X
2
1
3
1
4
         
         
         
         
         
X
         
         
         
         
         
X
1
2
3
5 fr
         
         
         
         
         
1
3
4
2
1
1
2 fr
         
         
         
         
         
X
1
1
1
4
         
         
         
         
         
X
X
1
2
2 fr
         
         
         
         
         
3
2
1
1
1
4
7 fr
         
         
         
         
         
X
X
1
3
4
3

9 fr
         
         
         
         
         
X
4
3
1
2
1
12 fr
         
         
         
         
         
X
1
3
3
3
1

Cm

variations
4 fr
         
         
         
         
         
X
1
3
4
2
1
9 fr
         
         
         
         
         
1
3
4
1
1
1
         
         
         
         
         
X
4
2
1
X
X
         
         
         
         
         
X
4
3
1
2
X
4 fr
         
         
         
         
         
X
1
X
X
2
1
11 fr
         
         
         
         
         
X
X
1
3
4
2

4 fr
         
         
         
         
         
X
X
7 fr
         
         
         
         
         
1
3
4
2
1
1
         
         
         
         
         
X
2
1
X
3
         
         
         
         
         
X
1
4
4
4
X
         
         
         
         
         
X
1
3
3
3
1
4 fr
         
         
         
         
         
4
3
1
1
1
X
4 fr
         
         
         
         
         
3
2
1
1
1
4

9 fr
         
         
         
         
         
X
X
1
3
4
3
11 fr
         
         
         
         
         
X
4
3
1
2
1
         
         
         
         
         
3
2
4
3 fr
         
         
         
         
         
1
3
4
2
1
1
         
         
         
         
         
2
1
3
4
3 fr
         
         
         
         
         
X
X
3
2
1
1
5 fr
         
         
         
         
         
X
X
1
3
4
3
7 fr
         
         
         
         
         
X
4
3
1
2
1

10 fr
         
         
         
         
         
X
1
2
3
4
X
10 fr
         
         
         
         
         
X
1
3
3
3
1
12 fr
         
         
         
         
         
3
2
1
1
1
4
         
         
         
         
         
X
X
1
3
2
2 fr
         
         
         
         
         
X
4
3
1
2
1
5 fr
         
         
         
         
         
X
1
2
3
4
1
5 fr
         
         
         
         
         
X
1
4
4
4
X
7 fr
         
         
         
         
         
4
3
1
1
1
X
7 fr
         
         
         
         
         
3
2
1
1
1
4

10 fr
         
         
         
         
         
1
3
4
2
1
1
12 fr
         
         
         
         
         
X
X
1
3
4
3
5 fr
         
         
         
         
         
X
X

B7sus4

variations
         
         
         
         
         
X
1
2
3
4
2 fr
         
         
         
         
         
X
1
3
1
4
1
7 fr
         
         
         
         
         
1
3
1
4
1
1
9 fr
         
         
         
         
         
X
X
1
3
2
4
No chord
Standard guitar tuning:
E
A
D
G
B
E
No capo

E Bm7 A E E Bm7 A E

Intro

E We used to walk in each otBm7her's arms, It was one on oAne, that's what you saEid E Now the moon is a Bm7sliver in our eye And we stumble Ableeding on this broken glEass Cm There was too much repetiBtion (over and over and over again) Cm You know I passed the point of sBane (over and over and over again) Cm But all this broken glass yBou left behind Won't let you Amake a clean, clBean Walk awEay Bm7 A E Now we're crossing from this sacred ground Where we once held each other, and each other's names When the words are sparse, and we feel we're so profound But babe, you know all I feel honey, I feel so ashamed Ah, hah, yes there was, there was too much repetition Oh, you know you know you know, you know I'm past the point of sane Ah, ho, woh, and all this broken glass we left behind Won't let us make a clean, clean I said walk away, oh yeah, walk away Oh no, walk away, baby baby, walk away, oh lord I said walk away, ah yeah, walk away Ah no, walk away, baby baby, walk away G There was a time when we gave Deverything And it was trAue, babe, true enough to blEeed (true enough to bleed, baby) G But now you feel that you've got nDothing left Well if there's nothing to lAose babe, oh baby,B don't you know by now Then there's nothing to gEain, oh no, walk awBm7ay Oh no, walk awAay, oh baby baby, walk awEay You know I'd still hold you if I could It's hard not to try and change, try to change your mind Well I'm a pillar of salt and I want you to understand, babe 'Cause honey, this is the last time, it's the last time I'll ever look behind Oh yeah, walk away Oh no, walk away, baby baby, walk away, all right, let's go

E Bm7 A E E Bm7 A E E Bm7 A B

Guitar solo

see tab at end.] Oh, I said walk away, oh yeah, walk away Oh no, walk away, baby baby, walk away Oh no, I said walk away, walk away, I said close your eyes WalkDon away, baby baby, try to listen to me, I want to tell you (It was one on one (?), that's waht you said to me baby, yeah) Now walk away, oh yeah, walk away, gotta learn to look inside Walk away, baby baby, baby baby, baby baby I said walk away, c'mon baby, walk away, I said listen to me Walk away, baby baby, listen, I want to tell you Now walk awEay, oh yeah, walk awBm7ay Oh no, walk awAay, oh baby, I said you B7sus4got to know by now E

Guitar solo

B 12--12--|E12--1212--101010|E----9-9-----7---|Bm77b8r7b8r7---7b8-|Bm7--------7/9-9-9-|
G 13--13--|13--1313--111111|--9-9-9---7-7---|7b8r7b8r7-------|--------7/9-9-9-|
D --------|----------------|----------------|----------------|----------------|
A --------|-[10,11,12,13,--|----------------|[bend/release---|----------------|
E --------|--not 0,1,2,3.]-|----------------|-at 7th fret]---|----------------|
^ . ^ . ^ . ^ . ^ . ^ . ^ . ^ . ^ . ^ . ^ . ^ . ^ . ^ . ^ . ^ . ^ . ^ .
  A                A                E                E
E ----------------|----------------|0---------------|----------------|
B 9/101010--9---9/|1010--10--9-----|0---------------|----------------|
G 9/111111--9---9/|1111--11--9-----|1---------------|----------------|
D ----------------|----------------|2---------------|----------------|
A ----------------|----------------|2---------------|----------------|
E ----------------|----------------|0-------3~--0-3~|--0-3~--0-------|
^ . ^ . ^ . ^ . ^ . ^ . ^ . ^ . ^ . ^ . ^ . ^ . ^ . ^ . ^ . ^ .
  E                E                Bm7              Bm7
E ----------------|----------------|----------------|----------------|
B ----------------|----------------|----------------|----------------|
G 6---6-6-6/7-7-7-|7/6-6-6-6/7-7-7-|7-6---6-6-4---4-|4-2---2-2---1---|
D 7---7-7-7/9-9-9-|9/7-7-7-7/9-9-9-|9-7---7-7-6---6-|6-4---4-4---2---|
A ----------------|----------------|----------------|----------------|
E [melody is on D string; try to play it louder than the G string]---| ^ . ^ . ^ . ^ . ^ . ^ . ^ . ^ . ^ . ^ . ^ . ^ . ^ . ^ . ^ . ^ .
  A                A                E                E
E ----------------|----------------|----------------|----------------|
B ----------------|----------------|----------------|----------------|
G 2/4-4-2/4-4-2/4-|4-2/4-4-4---2---|1---------------|----------------|
D 4/6-6-4/6-6-4/6-|6-4/6-6-46--4---|2---------------|----------------|
A ----------------|----------------|----------------|----------------|
E [melody is on D string]----------|--------3~--0-3~|--0-3~--0-------|
^ . ^ . ^ . ^ . ^ . ^ . ^ . ^ . ^ . ^ . ^ . ^ . ^ . ^ . ^ . ^ .
  E                E                Bm7              Bm7
E ----------------|----------------|----------------|----------------|
B ----------------|----------------|----------------|----------------|
G ----------------|--------7--8--9-|9\7---7-9\7---7-|9\7---7-9\7---7-|
D ------------5---|7--8--9---------|----9-------9---|----9-------9---|
A ----5---7-------|-------[triplet]|[play these slides as pull-offs--|
E ----------------[triplet]--------|---if this is too hard]----------|
^ . ^ . ^ . ^ . ^ . ^ . ^ . ^ . ^ . ^ . ^ . ^ . ^ . ^ . ^ . ^ .
  A                A                B                B
E ----------------|----------------|0-0-0-0-0-0-0-0-|0-0-0-0-0-0-0-0-|
B ----------------|----------0-0-0-|0-0-0-0-0-0-0-0-|0-0-0-0-0-0-0-0-|
G 9-8-7-----------|----------7-7-7-|8-8-8-8-8-8-8-8-|8-8-8-8-8-8-8-8-|
D ------9-8-7-5---|5---7-8-9-9-9-9-|9-9-9-9-9-9-9-9-|9-9-9-9-9-9-9-9-|
A --------------7-|----------------|9-9-9-9-9-9-9-9-|9-9-9-9-9-9-9-9-|
E ----------------|----------------|----------------|----------------|
^ . ^ . ^ . ^ . ^ . ^ . ^ . ^ . ^ . ^ . ^ . ^ . ^ . ^ . ^ . ^ .