Jacek Kaczmarski - Nasza Klasa Chords

Main Riff
 
No chord
Standard guitar tuning:
E
A
D
G
B
E
No capo

Intro

-----1---1---3-1-----0---0-3-1-0-----------0-----------------0---|
---3-------3-------3-------------3---3-------2-3-----------3-----|
-------2---------2-----2-----------2-----0---------0-2---2-------|
-0-------------------------------------0---------0-----0---------|
-----------------0-----------------------------------------------|
-----------------------------------------------------------------| 2x
Whole song:
-----1---1---3-1-----0---0-3-1-0-----1---1---3-1-----0---0-3-1-0--|
---3-------3-------3---------------3-------3-------3--------------|
-------2---------2-----2---------------2---------2-----2----------|
-0-------------------------------0--------------------------------|
-----------------0-------------------------------0----------------|
------------------------------------------------------------------|
-----3-1---3-5-3-----3---3-5-3-1-------1---1---3-1-0---0---0-3-1-0-----|
---------1---------3-----------------3-------3-------3-----------------|
---2-------------0-----3-----------------2---------2-----2-------------|
-3-------------------------------3-0-----------------------------------|
-----------------------------------------------------------------------|
-----------------3-----------------------------------------------------|
-----------0-----------------0---|
-3---3-------2-3-----------3-----|
---2-----0---------0-2---2-------|
-------0---------0-----0---------|
---------------------------------|
---------------------------------| 8x
-----1---1---3-1-----0---0-3-1-0-----1---1---3-1-----0---0-3-1-0--|
---3-------3-------3---------------3-------3-------3--------------|
-------2---------2-----2---------------2---------2-----2----------|
-0-------------------------------0--------------------------------|
-----------------0-------------------------------0----------------|
------------------------------------------------------------------|
-----3-1---3-5-3-----3---3-5-3-1-------1---1---3-1-0---0---0-3-1-0-----|
---------1---------3-----------------3-------3-------3-----------------|
---2-------------0-----3-----------------2---------2-----2-------------|
-3-------------------------------3-0-----------------------------------|
-----------------------------------------------------------------------|
-----------------3-----------------------------------------------------|
-----------0-----------------0--1-|
-3---3-------2-3-----------3----3-|
---2-----0---------0-2---2------2-|
-------0---------0-----0--------0-|
----------------------------------|
----------------------------------|