Jack Johnson - Girl I Wanna Lay You Down Chords

 
         
         
         
         
X
3
2
1
3 fr
         
         
         
         
X
1
2
3
4
1
8 fr
         
         
         
         
1
3
4
2
1
1
3 fr
         
         
         
         
X
1
X
3
4
1
5 fr
         
         
         
         
3
2
1
1
1
4
10 fr
         
         
         
         
X
X
1
3
4
3

12 fr
         
         
         
         
X
4
3
1
2
1
3 fr
         
         
         
         
X
         
         
         
         
X
X
2
1
1
5 fr
         
         
         
         
X
1
3
1
2
1
5 fr
         
         
         
         
X
1
X
2
4
3
5 fr
         
         
         
         
X
1
3
1
2
4
3 fr
         
         
         
         
X
2
1
3
1
4
10 fr
         
         
         
         
1
3
X
1
4
1

10 fr
         
         
         
         
1
3
1
1
4
1
10 fr
         
         
         
         
1
3
1
1
1
1
12 fr
         
         
         
         
X
X
1
3
2
2
5 fr
         
         
         
         
X
X
         
         
         
         
1
3
4
2
1
1
5 fr
         
         
         
         
X
4
3
1
2
1
3 fr
         
         
         
         
X
X
1
2
4
3
         
         
         
         
X
X
3
2
1
1
8 fr
         
         
         
         
X
1
3
3
3
1
10 fr
         
         
         
         
4
3
1
1
1
X

10 fr
         
         
         
         
3
2
1
1
1
4
No chord
Standard guitar tuning:
E
A
D
G
B
E
No capo
C barre Dm7 barre F barre
e|---3-----------5------------1--------------------------------------------|
B|---5-----------6------------1--------------------------------------------|
G|---5-----------5------------2--------------------------------------------|
D|---5-----------7------------3--------------------------------------------|
A|---3-----------5------------3--------------------------------------------|
E|---3-----------5------------1--------------------------------------------|

Verse 1

   C Dm7    I come over early in the morning just like a Cheat wave, without Dm7warning And when I tCouch you my heart begins to fDm7lutter 'Cause you're smooth and cCreamy like peanut Dm7butter Aww Yeah

Chorus

CGirl I wanna lay you dFown I said CGirl I wanna lay you dFown

Verse 2

I'm gonna Cflood you, like a love Dm7river Baby the Cpost man, is about to Dm7deliver Cook ya up some dCinner, a little Dm7pasta Listen to some mCusic, a little Dm7Rasta

Chorus

CGirl I wanna lay you dFown I said CGirl I wanna lay you dFown

Gi

Fill:
e|--------------------------------------------------------------------|
B|--------------------------------------------------------------------|
G|--------------------------------------------------------------------|
D|---------5-------3-3-----------------x3-----------------------------|
A|-3/5--7-----7----------7---5-5--3-----------------------------------|
E|--------------------------------------------------------------------|
e|--------------------------------------------------------------------|
B|--------------------------------------------------------------------|
G|--------------------------------------------------------------------|
D|---------5-------3-3------------------------------------------------|
A|-3/5--7-----7----------7--777--5-5--3-------------------------------|
E|--------------------------------------------------------------------|

C Dm7

Verse 3

So turn out the Clights, bring out the Dm7candles, wrap your armCs around my love Dm7handles, they say the pCassion may not always Dm7endure, but this fCeeling that I have for you is Dm7burning up my world Ending chorus: CGirl I wanna lay you dFown Hooo hooo hoooooo I said CGirl I wanna lay you dFown I said CGirl I wanna lay you dFown I said CGirl I wanna lay you dFown CGirl I wanna lay you dFown CGirl I wanna lay you dFown
Ending fill:
e|--------------------------------------------------------------------|
B|--------------------------------------------------------------------|
G|--------------------------------------------------------------------|
D|---------5-------3-3-----------------x1-----------------------------|
A|-3/5--7-----7----------7---5-5--3-----------------------------------|
E|--------------------------------------------------------------------|
e|--------------------------------------------------------------------|
B|--------------------------------------------------------------------|
G|--------------------------------------------------------------------|
D|---------5-------3-3------------------------------------------------|
A|-3/5--7-----7----------7--777--5-5--3-------------------------------|
E|--------------------------------------------------------------------|