Jamey Johnson - Thats How I Dont Love You Chords

 

Fm

variations
         
         
         
         
1
3
4
1
1
1
4 fr
         
         
         
         
X
X
1
3
4
2
         
         
         
         
X
X
3
1
1
1
9 fr
         
         
         
         
X
1
3
4
2
1
6 fr
         
         
         
         
X
4
3
1
2
X
         
         
         
         
X
X
1
3
2
2 fr
         
         
         
         
X
4
3
1
2
1
5 fr
         
         
         
         
X
1
2
3
4
1
5 fr
         
         
         
         
X
1
4
4
4
X
7 fr
         
         
         
         
4
3
1
1
1
X
7 fr
         
         
         
         
3
2
1
1
1
4

10 fr
         
         
         
         
1
3
4
2
1
1
12 fr
         
         
         
         
X
X
1
3
4
3
5 fr
         
         
         
         
X
X
         
         
         
         
2
3
1
4 fr
         
         
         
         
X
4
3
1
2
1
7 fr
         
         
         
         
X
1
4
4
4
X
2 fr
         
         
         
         
X
X
1
2
4
3
4 fr
         
         
         
         
4
3
1
2
1
7 fr
         
         
         
         
X
1
3
3
3
1

9 fr
         
         
         
         
4
3
1
1
1
X
9 fr
         
         
         
         
3
2
1
1
1
4
12 fr
         
         
         
         
1
3
4
2
1
1
4 fr
         
         
         
         
X
         
         
         
         
X
1
2
3
5 fr
         
         
         
         
1
3
4
2
1
1
2 fr
         
         
         
         
X
1
1
1
4
         
         
         
         
X
X
1
2
2 fr
         
         
         
         
3
2
1
1
1
4
7 fr
         
         
         
         
X
X
1
3
4
3

9 fr
         
         
         
         
X
4
3
1
2
1
12 fr
         
         
         
         
X
1
3
3
3
1
No chord
Standard guitar tuning:
E
A
D
G
B
E
No capo

Intro

E---------------|
B---------------|
G--------2------| X4
D--xx-x---4-----|
A---------------|
E---------------|
Chords: F#m, D x4

Verse

FmI used to wake up eaDrly FmJust so I could waDtch you as you sleFmep D That's how I loFmved yEou FmForever was a pDromise FmWasn't very hDard for me to Fmkeep D That's how I Fmloved yEou

Chorus

FmFour Habits and a cDarnal sin AHas left me in cErooked state of mFmind D That's how I loFmved yEou FmNow I just pour the poDison in and AAct like it's my new bEest friend at nFmight D FmAnd I cEry (Sing, don't play) F#m Dx2 And that's how I don't love you anymore

Verse 2

FmThere ain't no sense in yeDllin' FmThere ain't no use in dwDelling on the pFmast D That's how I lFmoved yEou FmI'm sittin' here and miDssin' you FmIs a waste of time and lDife goes by too faFmst D That's how I lFmoved yEou

Chorus

FmFour Habits and a cDarnal sin AHas left me in crooEked state of mFmind D That's how I lFmoved yEou FmNow I just pour the poDison in and AAct like it's my nEew best friend at niFmght D AAnd I cEry And that's how I don't love you anymore I used to wake up early Just so I could watch you as you sleep That's how I loved you

Outro

E:------------------------------------------------------------------|
B:------------------------------------------------------------------|
G:----------------------------------------------2/13-h14-p13-9h11v--|
D:-7h9p7-h9p7-h9p7-h9p7------(5th fret harmonic)--------------------|
A:----------------------7-8-9---------------------------------------|
E:------------------------------------------------------------------|
E:------------------------------------------------------------------------|
B:------------------------------------------------------------------------|
G:---------2--------------2-------------2-----------------------------2---|
D:--xx-x-----4----xx-x------4----xx-x-----4--7h9p7-h9p7-h9p7-h9h9-xx-x--4-|
A:------------------------------------------------------------------------|
E:------------------------------------------------------------------------|
E:---------|
B:---------|
G:------2--|
D:-xx-x--4-|
A:---------|
E:---------|