Jars of Clay - Flood Chords

Main Riff
Main Riff
 
         
         
         
         
         
X
1
2
X
X
5 fr
         
         
         
         
         
1
3
4
X
X
X
7 fr
         
         
         
         
         
X
X
1
3
4
X
         
         
         
         
         
X
X
5 fr
         
         
         
         
         
X
X
5 fr
         
         
         
         
         
X
X
         
         
         
         
         
X
X
3
2
1
3 fr
         
         
         
         
         
X
X
1
4
4
4
         
         
         
         
         
1
X
3
4
2
X
         
         
         
         
         
1
4
2
3
1
1
8 fr
         
         
         
         
         
X
1
3
2
4
1
         
         
         
         
         
1
4
3
2

5 fr
         
         
         
         
         
X
4
3
1
1
1
         
         
         
         
         
X
         
         
         
         
         
         
         
         
         
         
X
3
2
3 fr
         
         
         
         
         
X
1
3
2
4
1
3 fr
         
         
         
         
         
X
1
X
3
4
2
8 fr
         
         
         
         
         
1
X
3
4
2
X
7 fr
         
         
         
         
         
X
X
4
3
2
1
8 fr
         
         
         
         
         
1
4
2
3
1
1

10 fr
         
         
         
         
         
X
X
1
3
3
3
12 fr
         
         
         
         
         
X
4
3
1
1
X
         
         
         
         
         
2
7 fr
         
         
         
         
         
X
1
3
1
2
1
         
         
         
         
         
X
X
1
3
2
2
         
         
         
         
         
1
2
4
4
         
         
         
         
         
2
3
4
         
         
         
         
         
2
4

3 fr
         
         
         
         
         
X
3
2
1
5 fr
         
         
         
         
         
X
2
1
3
1
4
7 fr
         
         
         
         
         
X
1
3
1
2
X
7 fr
         
         
         
         
         
X
1
3
1
2
4
12 fr
         
         
         
         
         
1
3
1
1
4
1
         
         
         
         
         
3
2
5 fr
         
         
         
         
         
X
X
1
3
1
4
10 fr
         
         
         
         
         
X
No chord
    
Standard guitar tuning:
E
A
D
G
B
E
Capo on 3 fret

Intro

   A5 F7M [G6/9] C7M    A5  F7M [G6/9] Em7
E[--0---0----0----0--------0----0----0----0----]
B[--5---1----3----0--------5----1----3----3----]
E[--0---0----0----0--------0----0----0----0----]
B[--5---1----3----8--------5----1----3----2----]
A[--x---x----x----x--------x----x----x----3----]
E[--5---1----3----8--------5----1----3----0----]

Verse1

Palm Muted)

A5 G6 Em7

E[--x----x----x---] B[--x----x----x---] E[--0----0----0---] (4x) B[--5----3----2---] A[--x----x----3---] E[--5----3----0---]
Rain rain on my face Hasn't stopped raining for days Dark skies all around Can't feel my feet touching the ground

Prechorus1

    A5  G6   Em7
E[--0----0----0---]
B[--0----0----0---]
E[--0----0----0---]               (4x)
B[--5----3----2---]
A[--x----x----3---]
E[--5----3----0---]
But if I can't swim after forty days And my mind is crushed by the thrashing waves Lift me up so high that I cannot fall, Lift me up

Chorus1

   A5 F7M [G6/9] C7M    A5  F7M [G6/9] Em7
E[--0---0----0----0--------0----0----0----0----]
B[--5---1----3----0--------5----1----3----3----]
E[--0---0----0----0--------0----0----0----0----]  (2x)
B[--5---1----3----8--------5----1----3----2----]
A[--x---x----x----x--------x----x----x----3----]
E[--5---1----3----8--------5----1----3----0----]
Lift me up (When I'm falling) Lift me up (I'm weak and I'm dying) Lift me up (I need You to hold me) Lift me up (Keep me from drowning again)
Tag

A5

E[--0----] B[--5----] E[--0----] B[--5----] A[--x----] E[--5----]

Verse2

Palm Muted)

A5 G6 Em7

E[--x----x----x---] B[--x----x----x---] E[--0----0----0---] (4x) B[--5----3----3---] A[--x----x----2---] E[--5----3----0---]
Downpour on my soul Splashing in the ocean, I'm losing control Dark sky all around Can't feel my feet touching the ground

Prechorus2

    A5  G6   Em7
E[--0----0----0---]
B[--0----0----0---]
E[--0----0----0---]               (4x)
B[--5----3----2---]
A[--x----x----3---]
E[--5----3----0---]
But if I can't swim after forty days And my mind is crushed by the thrashing waves Lift me up so high that I cannot fall, Lift me up

Chorus2

   A5 F7M [G6/9] C7M    A5  F7M [G6/9] Em7
E[--0---0----0----0--------0----0----0----0----]
B[--5---1----3----0--------5----1----3----3----]
E[--0---0----0----0--------0----0----0----0----]
B[--5---1----3----8--------5----1----3----2----]
A[--x---x----x----x--------x----x----x----3----]
E[--5---1----3----8--------5----1----3----0----]
Lift me up (When I'm falling) Lift me up (I'm weak and I'm dying) Lift me up (I need You to hold me)
   A5 F7M [G6/9] C7M    A5  F7M [G6/9]
E[--0---0----0----0--------0----0----0-------------]
B[--5---1----3----0--------5----1----3-------------]
E[--0---0----0----0--------0----0----0-<<-let ring-]
B[--5---1----3----8--------5----1----3-------------]
A[--x---x----x----x--------x----x----x-------------]
E[--5---1----3----8--------5----1----3-------------]
Lift me up (Keep me from drowning again)

Bridge

String interlude

Prechorus3

    A5  G6   Em7
E[--0----0----0---]
B[--0----0----0---]
E[--0----0----0---]               (4x)
B[--5----3----2---]
A[--x----x----3---]
E[--5----3----0---]
If I can't swim after forty days And my mind is crushed by the thrashing waves Lift me up so high that I cannot fall, Lift me up

Chorus3

   A5 F7M [G6/9] C7M    A5  F7M [G6/9] Em7
E[--0---0----0----0--------0----0----0----0----]
B[--5---1----3----0--------5----1----3----3----]
E[--0---0----0----0--------0----0----0----0----]  (4x)
B[--5---1----3----8--------5----1----3----2----]
A[--x---x----x----x--------x----x----x----3----]
E[--5---1----3----8--------5----1----3----0----]
Lift me up (When I'm falling) Lift me up (I'm weak and I'm dying) Lift me up (I need You to hold me) Lift me up (Keep me from drowning again) (repeat lyrics 2x)
Tag

A5

E[--0----] B[--5----] E[--0----] B[--5----] A[--x----] E[--5----]