Jason Mraz - Mr A-z Chords

 

Am

variations
4 fr
         
         
         
         
1
3
4
1
1
1
6 fr
         
         
         
         
X
X
1
3
4
2
4 fr
         
         
         
         
X
X
3
1
1
1
         
         
         
         
4
2
1
X
X
X
8 fr
         
         
         
         
X
4
3
1
2
X
11 fr
         
         
         
         
X
1
3
4
2
1

Cm

variations
4 fr
         
         
         
         
X
1
3
4
2
1
9 fr
         
         
         
         
1
3
4
1
1
1
         
         
         
         
X
4
2
1
X
X
         
         
         
         
X
4
3
1
2
X
4 fr
         
         
         
         
X
1
X
X
2
1
11 fr
         
         
         
         
X
X
1
3
4
2

4 fr
         
         
         
         
X
X
         
         
         
         
2
3
1
4 fr
         
         
         
         
X
4
3
1
2
1
7 fr
         
         
         
         
X
1
4
4
4
X
2 fr
         
         
         
         
X
X
1
2
4
3
4 fr
         
         
         
         
4
3
1
2
1
7 fr
         
         
         
         
X
1
3
3
3
1

9 fr
         
         
         
         
4
3
1
1
1
X
9 fr
         
         
         
         
3
2
1
1
1
4
12 fr
         
         
         
         
1
3
4
2
1
1
4 fr
         
         
         
         
X
         
         
         
         
2
3
3 fr
         
         
         
         
X
X
2
4
1
7 fr
         
         
         
         
X
1
3
4
2
1
2 fr
         
         
         
         
X
X
1
3
4
2
3 fr
         
         
         
         
X
3
2
4
1
4 fr
         
         
         
         
X
4
3
1
2
X

12 fr
         
         
         
         
1
3
4
1
1
1
7 fr
         
         
         
         
1
3
4
2
1
1
         
         
         
         
X
2
1
X
3
         
         
         
         
X
1
4
4
4
X
         
         
         
         
X
1
3
3
3
1
4 fr
         
         
         
         
4
3
1
1
1
X
4 fr
         
         
         
         
3
2
1
1
1
4

9 fr
         
         
         
         
X
X
1
3
4
3
11 fr
         
         
         
         
X
4
3
1
2
1

F

variations
         
         
         
         
1
3
4
2
1
1
         
         
         
         
X
X
3
2
1
1
6 fr
         
         
         
         
X
4
3
1
2
1
4 fr
         
         
         
         
X
X
1
2
4
3
9 fr
         
         
         
         
X
1
3
3
3
1
11 fr
         
         
         
         
4
3
1
1
1
X

11 fr
         
         
         
         
3
2
1
1
1
4

B

variations
         
         
         
         
X
1
2
3
4
1
6 fr
         
         
         
         
1
3
4
2
1
1
         
         
         
         
X
1
4
4
4
X
         
         
         
         
X
1
X
3
4
1
3 fr
         
         
         
         
3
2
1
1
1
4
8 fr
         
         
         
         
X
X
1
3
4
3

10 fr
         
         
         
         
X
4
3
1
2
1

Fm

variations
         
         
         
         
1
3
4
1
1
1
4 fr
         
         
         
         
X
X
1
3
4
2
         
         
         
         
X
X
3
1
1
1
9 fr
         
         
         
         
X
1
3
4
2
1
6 fr
         
         
         
         
X
4
3
1
2
X
         
         
         
         
X
1
3
4
2
1
7 fr
         
         
         
         
1
3
4
1
1
1
         
         
         
         
X
1
3
4
2
X
7 fr
         
         
         
         
X
X
3
1
1
1
9 fr
         
         
         
         
X
X
1
3
4
2
11 fr
         
         
         
         
X
4
3
1
2
X
         
         
         
         
X
X
1
3
2
2 fr
         
         
         
         
X
4
3
1
2
1
5 fr
         
         
         
         
X
1
2
3
4
1
5 fr
         
         
         
         
X
1
4
4
4
X
7 fr
         
         
         
         
4
3
1
1
1
X
7 fr
         
         
         
         
3
2
1
1
1
4

10 fr
         
         
         
         
1
3
4
2
1
1
12 fr
         
         
         
         
X
X
1
3
4
3
5 fr
         
         
         
         
X
X
         
         
         
         
X
X
2
3
1
5 fr
         
         
         
         
X
1
3
4
2
1
10 fr
         
         
         
         
X
X
1
1
1
5 fr
         
         
         
         
X
X
3
2
1
2 fr
         
         
         
         
X
4
3
1
2
X
10 fr
         
         
         
         
1
3
4
1
1
1

12 fr
         
         
         
         
X
X
1
3
4
2
         
         
         
         
X
1
2
3
5 fr
         
         
         
         
1
3
4
2
1
1
2 fr
         
         
         
         
X
1
1
1
4
         
         
         
         
X
X
1
2
2 fr
         
         
         
         
3
2
1
1
1
4
7 fr
         
         
         
         
X
X
1
3
4
3

9 fr
         
         
         
         
X
4
3
1
2
1
12 fr
         
         
         
         
X
1
3
3
3
1

E/G

variations
4 fr
         
         
         
         
1
4
3
1
2
1
         
         
         
         
4
2
3
1
4 fr
         
         
         
         
1
X
X
2
4
3
4 fr
         
         
         
         
X
X
3
1
2
1
         
         
         
         
3
2
4
3 fr
         
         
         
         
1
3
4
2
1
1
         
         
         
         
2
1
3
4
3 fr
         
         
         
         
X
X
3
2
1
1
5 fr
         
         
         
         
X
X
1
3
4
3
7 fr
         
         
         
         
X
4
3
1
2
1

10 fr
         
         
         
         
X
1
2
3
4
X
10 fr
         
         
         
         
X
1
3
3
3
1
12 fr
         
         
         
         
3
2
1
1
1
4

Cadd9

variations
         
         
         
         
X
2
1
3
X
         
         
         
         
X
3
1
         
         
         
         
X
2
3
8 fr
         
         
         
         
X
X
3
2
1
4
         
         
         
         
X
         
         
         
         
X
         
         
         
         
2
7 fr
         
         
         
         
X
1
3
1
2
1
         
         
         
         
X
X
1
3
2
2
         
         
         
         
1
2
4
4
         
         
         
         
2
3
4
         
         
         
         
2
4

3 fr
         
         
         
         
X
3
2
1
5 fr
         
         
         
         
X
2
1
3
1
4
7 fr
         
         
         
         
X
1
3
1
2
X
7 fr
         
         
         
         
X
1
3
1
2
4
12 fr
         
         
         
         
1
3
1
1
4
1
         
         
         
         
X
2
1
         
         
         
         
X
2
3
1
4
5 fr
         
         
         
         
X
1
1
1
1
5 fr
         
         
         
         
1
3
1
1
1
1
5 fr
         
         
         
         
1
3
1
1
4
1
7 fr
         
         
         
         
X
1
4
2
3

10 fr
         
         
         
         
X
2
1
3
1
4
12 fr
         
         
         
         
X
1
3
1
2
4
5 fr
         
         
         
         
X

D/F

variations
         
         
         
         
1
2
4
3
         
         
         
         
X
X
3
1
2
1
7 fr
         
         
         
         
X
3
1
1
1
4
2 fr
         
         
         
         
1
4
3
1
2
1
         
         
         
         
X
3
2
1
3 fr
         
         
         
         
X
1
2
3
4
1
8 fr
         
         
         
         
1
3
4
2
1
1
3 fr
         
         
         
         
X
1
X
3
4
1
5 fr
         
         
         
         
3
2
1
1
1
4
10 fr
         
         
         
         
X
X
1
3
4
3

12 fr
         
         
         
         
X
4
3
1
2
1
3 fr
         
         
         
         
X

Bm

variations
         
         
         
         
X
1
3
4
2
1
6 fr
         
         
         
         
1
3
4
1
1
1
         
         
         
         
X
1
3
4
2
X
6 fr
         
         
         
         
X
X
3
1
1
1
8 fr
         
         
         
         
X
X
1
3
4
2
10 fr
         
         
         
         
X
4
3
1
2
X

Em7

variations
6 fr
         
         
         
         
X
1
3
1
2
1
         
         
         
         
X
X
1
4
2
3
6 fr
         
         
         
         
X
1
3
1
2
4
11 fr
         
         
         
         
1
X
1
1
1
X
4 fr
         
         
         
         
X
2
1
3
1
4
11 fr
         
         
         
         
1
3
X
1
4
1

11 fr
         
         
         
         
1
3
1
1
4
1
11 fr
         
         
         
         
1
3
1
1
1
1

Cm7(5)

variations
         
         
         
         
X
1
3
2
4
X
         
         
         
         
X
3
1
4
1
2
8 fr
         
         
         
         
1
2
1
1
4
1
10 fr
         
         
         
         
X
X
1
2
2
2
         
         
         
         
1
3
4
2
1
1
5 fr
         
         
         
         
X
4
3
1
2
1
3 fr
         
         
         
         
X
X
1
2
4
3
         
         
         
         
X
X
3
2
1
1
8 fr
         
         
         
         
X
1
3
3
3
1
10 fr
         
         
         
         
4
3
1
1
1
X

10 fr
         
         
         
         
3
2
1
1
1
4

C

variations
4 fr
         
         
         
         
X
1
2
3
4
1
         
         
         
         
X
4
3
1
2
1
4 fr
         
         
         
         
X
1
4
4
4
X
6 fr
         
         
         
         
4
3
1
1
1
X
6 fr
         
         
         
         
3
2
1
1
1
4
9 fr
         
         
         
         
1
3
4
2
1
1

11 fr
         
         
         
         
X
X
1
3
4
3

A

variations
4 fr
         
         
         
         
1
3
4
2
1
1
4 fr
         
         
         
         
X
X
3
2
1
1
6 fr
         
         
         
         
X
X
1
2
4
3
         
         
         
         
3
2
1
1
1
4
8 fr
         
         
         
         
X
4
3
1
2
1
11 fr
         
         
         
         
X
1
2
3
4
X

11 fr
         
         
         
         
X
1
3
3
3
1
         
         
         
         
1
3
4
1
1
1
         
         
         
         
X
X
3
1
1
1
3 fr
         
         
         
         
X
X
1
3
4
2
8 fr
         
         
         
         
X
1
3
4
2
1
5 fr
         
         
         
         
X
4
3
1
2
X
         
         
         
         
X
3
2
1
1
5 fr
         
         
         
         
1
4
3
1
2
1
5 fr
         
         
         
         
X
X
3
1
2
1
5 fr
         
         
         
         
1
X
X
2
4
3

Em

variations
6 fr
         
         
         
         
X
1
3
4
2
1
         
         
         
         
X
X
1
3
4
2
3 fr
         
         
         
         
X
4
2
1
X
X
6 fr
         
         
         
         
X
1
X
X
2
1
3 fr
         
         
         
         
X
4
3
1
2
X
11 fr
         
         
         
         
1
3
4
1
1
1

C6

variations
4 fr
         
         
         
         
X
1
3
3
3
3
6 fr
         
         
         
         
4
3
1
1
1
1
11 fr
         
         
         
         
X
X
1
3
1
4

B/D

variations
         
         
         
         
X
X
3
4
1
3 fr
         
         
         
         
X
3
1
1
1
X
5 fr
         
         
         
         
X
1
4
3
2
X
5 fr
         
         
         
         
X
1
X
X
4
4
         
         
         
         
X
X
2
1
1
5 fr
         
         
         
         
X
1
3
1
2
1
5 fr
         
         
         
         
X
1
X
2
4
3
5 fr
         
         
         
         
X
1
3
1
2
4
3 fr
         
         
         
         
X
2
1
3
1
4
10 fr
         
         
         
         
1
3
X
1
4
1

10 fr
         
         
         
         
1
3
1
1
4
1
10 fr
         
         
         
         
1
3
1
1
1
1
12 fr
         
         
         
         
X
X
1
3
2
2
5 fr
         
         
         
         
X
X
3 fr
         
         
         
         
X
1
3
4
2
1
8 fr
         
         
         
         
1
3
4
1
1
1
         
         
         
         
X
3
1
X
X
         
         
         
         
X
4
1
2
X
8 fr
         
         
         
         
X
X
3
1
1
1
10 fr
         
         
         
         
X
X
1
3
4
2

12 fr
         
         
         
         
X
4
3
1
2
X

E

variations
3 fr
         
         
         
         
X
4
3
1
2
1
6 fr
         
         
         
         
X
1
2
3
4
1
         
         
         
         
X
X
1
2
4
3
3 fr
         
         
         
         
X
4
3
1
2
X
8 fr
         
         
         
         
4
3
1
1
1
X
8 fr
         
         
         
         
3
2
1
1
1
4

11 fr
         
         
         
         
1
3
4
2
1
1
3 fr
         
         
         
         
1
3
4
1
1
1
5 fr
         
         
         
         
X
X
1
3
4
2
3 fr
         
         
         
         
X
X
3
1
1
1
         
         
         
         
1
X
2
3
4
         
         
         
         
3
1
X
X
X
         
         
         
         
2
1
3
4

7 fr
         
         
         
         
X
4
3
1
2
X
10 fr
         
         
         
         
X
1
3
4
2
1
         
         
         
         
X
X
2
1
3
5 fr
         
         
         
         
X
1
3
1
4
1
5 fr
         
         
         
         
X
X
1
3
1
10 fr
         
         
         
         
1
3
1
2
1
1
5 fr
         
         
         
         
X
1
3
3
3
4
7 fr
         
         
         
         
4
3
1
1
1
2

10 fr
         
         
         
         
1
3
1
2
X
1
10 fr
         
         
         
         
1
3
1
2
4
1
12 fr
         
         
         
         
X
X
1
3
2
4

Gm9

3 fr
         
         
         
         
1
3
1
1
1
4
         
         
         
         
X
1
3
1
2
1
7 fr
         
         
         
         
1
3
1
1
1
1
         
         
         
         
X
1
X
2
4
3
         
         
         
         
X
1
2
3
7 fr
         
         
         
         
1
X
1
1
1
X
2 fr
         
         
         
         
X
1
3
1
2
4

7 fr
         
         
         
         
1
3
1
1
4
1
9 fr
         
         
         
         
X
X
1
3
2
2
12 fr
         
         
         
         
X
2
1
3
1
4
         
         
         
         
X
         
         
         
         
X
2
3
1
5 fr
         
         
         
         
1
3
4
1
1
1
5 fr
         
         
         
         
X
X
1
1
1
8 fr
         
         
         
         
X
3
2
4
1
2 fr
         
         
         
         
X
1
4
4
4
7 fr
         
         
         
         
X
1
3
4
2

9 fr
         
         
         
         
X
4
3
1
2
X
12 fr
         
         
         
         
X
1
3
4
2
1
5 fr
         
         
         
         
X
         
         
         
         
X
2
1
3
4
         
         
         
         
X
1
3
1
4
1
7 fr
         
         
         
         
1
3
1
2
1
1
7 fr
         
         
         
         
1
X
2
4
3
X
2 fr
         
         
         
         
X
1
3
3
3
4
4 fr
         
         
         
         
4
3
1
1
1
2

7 fr
         
         
         
         
1
3
1
2
X
1
7 fr
         
         
         
         
1
3
1
2
4
1
9 fr
         
         
         
         
X
X
1
3
2
4
         
         
         
         
2
3
         
         
         
         
1
2
4
3
         
         
         
         

Bm6

variations
         
         
         
         
X
1
3
2
4
6 fr
         
         
         
         
1
2
3
1
4
1
8 fr
         
         
         
         
X
X
1
3
1
2

Bsus2

variations
         
         
         
         
X
1
3
4
1
1
3 fr
         
         
         
         
4
1
1
1
X
X
5 fr
         
         
         
         
X
X
3
1
2
4
8 fr
         
         
         
         
X
X
1
3
4
1
10 fr
         
         
         
         
X
2
1
1
3
4
10 fr
         
         
         
         
X
3
1
1
2
4
         
         
         
         
X
2
4
7 fr
         
         
         
         
1
4
3
1
2
1
         
         
         
         
X
1
X
X
3
4
         
         
         
         
X
1
3
4
2 fr
         
         
         
         
X
1
4
3
2
X
         
         
         
         
X
2
4
1
3
2 fr
         
         
         
         
4
2
1
5 fr
         
         
         
         
1
3
1
1
1
4

Dm9

10 fr
         
         
         
         
1
3
1
1
1
4

Bdim7

variations
         
         
         
         
X
2
3
1
4
1
         
         
         
         
X
3
1
2
6 fr
         
         
         
         
2
4
1
3
X
X
9 fr
         
         
         
         
X
X
1
3
2
4

F7Madd11

         
         
         
         

B7

variations
         
         
         
         
X
1
3
1
4
1
6 fr
         
         
         
         
1
3
1
2
1
1
         
         
         
         
X
1
3
3
3
4
8 fr
         
         
         
         
X
X
1
3
2
4
3 fr
         
         
         
         
4
3
1
1
1
2
6 fr
         
         
         
         
1
3
1
2
4
1
         
         
         
         
X
1
3
2
4
1
         
         
         
         
X
1
X
3
4
2
7 fr
         
         
         
         
1
X
3
4
2
X
         
         
         
         
X
2
1
4
3
9 fr
         
         
         
         
X
X
1
4
4
4
6 fr
         
         
         
         
X
X
4
3
2
1

7 fr
         
         
         
         
1
4
2
3
1
1
11 fr
         
         
         
         
X
4
3
1
1
X
         
         
         
         
X
1
1
1
3
         
         
         
         
X
1
3
5 fr
         
         
         
         
1
3
1
2
1
1
7 fr
         
         
         
         
X
1
3
2
4
2 fr
         
         
         
         
4
3
1
1
1
2
5 fr
         
         
         
         
1
3
1
2
4
1

7 fr
         
         
         
         
X
X
1
3
2
4
10 fr
         
         
         
         
X
3
2
4
1
12 fr
         
         
         
         
X
1
3
3
3
4
         
         
         
         
X
2
3
1
7 fr
         
         
         
         
1
X
4
4
4
X
4 fr
         
         
         
         
4
X
X
1
2
1
9 fr
         
         
         
         
X
X
1
1
1
4
4 fr
         
         
         
         
4
4
3
1
2
1
7 fr
         
         
         
         
1
1
2
3
4
1
         
         
         
         
X
1
1
1
4
         
         
         
         
X
2
1
3
5 fr
         
         
         
         
1
X
3
4
2
X
7 fr
         
         
         
         
X
X
1
4
4
4
4 fr
         
         
         
         
X
4
3
2
1
5 fr
         
         
         
         
1
4
2
3
1
1

9 fr
         
         
         
         
X
4
3
1
1
1

Fadd9

variations
         
         
         
         
X
X
3
2
1
4
6 fr
         
         
         
         
X
3
1
1
4
1
6 fr
         
         
         
         
X
3
2
1
4
1
6 fr
         
         
         
         
X
4
1
1
2
1
11 fr
         
         
         
         
4
1
1
1
1
X

Badd9

variations
7 fr
         
         
         
         
X
X
3
2
1
4
11 fr
         
         
         
         
X
4
1
1
2
1
11 fr
         
         
         
         
X
3
1
1
4
1
11 fr
         
         
         
         
X
3
2
1
4
1

G

variations
4 fr
         
         
         
         
1
3
4
2
1
1
4 fr
         
         
         
         
X
X
3
2
1
1
6 fr
         
         
         
         
X
X
1
2
4
3
         
         
         
         
3
2
1
1
1
4
8 fr
         
         
         
         
X
4
3
1
2
1
11 fr
         
         
         
         
X
1
2
3
4
X

11 fr
         
         
         
         
X
1
3
3
3
1

B7M9

variations
         
         
         
         
X
1
4
2
3
5 fr
         
         
         
         
2
1
4
1
3
1

Fm7

variations
         
         
         
         
1
3
1
1
1
1
9 fr
         
         
         
         
X
1
3
1
2
1
         
         
         
         
X
X
4
1
2
2 fr
         
         
         
         
1
3
1
1
4
1
4 fr
         
         
         
         
X
X
1
3
2
2
7 fr
         
         
         
         
X
2
1
3
1
4

9 fr
         
         
         
         
X
1
3
1
2
X
9 fr
         
         
         
         
X
1
3
1
2
4
         
         
         
         
X

Bdim

variations
         
         
         
         
X
1
2
4
3
6 fr
         
         
         
         
1
3
4
2
X
X
8 fr
         
         
         
         
X
X
1
2
4
3
         
         
         
         
X
X
3
2
1
3 fr
         
         
         
         
X
X
1
4
4
4
         
         
         
         
1
X
3
4
2
X
         
         
         
         
1
4
2
3
1
1
8 fr
         
         
         
         
X
1
3
2
4
1
         
         
         
         
1
4
3
2

5 fr
         
         
         
         
X
4
3
1
1
1
         
         
         
         
X
         
         
         
         
3 fr
         
         
         
         
1
3
1
1
1
1
5 fr
         
         
         
         
X
X
1
4
2
3
10 fr
         
         
         
         
X
1
X
2
4
3
3 fr
         
         
         
         
1
3
1
1
4
1
10 fr
         
         
         
         
X
1
3
1
2
1
8 fr
         
         
         
         
X
2
1
3
1
4

10 fr
         
         
         
         
X
1
3
1
2
X
10 fr
         
         
         
         
X
1
3
1
2
4

Cm7

variations
4 fr
         
         
         
         
X
1
3
1
2
1
9 fr
         
         
         
         
1
3
1
1
1
1
4 fr
         
         
         
         
X
1
X
2
4
3
         
         
         
         
X
2
1
3
1
4
4 fr
         
         
         
         
X
1
3
1
2
4
         
         
         
         
X
4
2
1

9 fr
         
         
         
         
1
3
1
1
4
1
11 fr
         
         
         
         
X
X
1
3
2
2

Am7

variations
4 fr
         
         
         
         
1
3
1
1
1
1
6 fr
         
         
         
         
X
X
1
4
2
3
         
         
         
         
1
X
1
1
1
X
4 fr
         
         
         
         
1
3
1
1
4
1
4 fr
         
         
         
         
1
3
1
1
4
X
9 fr
         
         
         
         
X
2
1
3
1
4

11 fr
         
         
         
         
X
1
3
1
2
X
11 fr
         
         
         
         
X
1
3
1
2
4

Aadd9

variations
         
         
         
         
X
1
4
2
5 fr
         
         
         
         
X
X
3
2
1
4
9 fr
         
         
         
         
X
3
2
1
4
1
9 fr
         
         
         
         
X
4
1
1
2
1
9 fr
         
         
         
         
X
3
1
1
4
1
6 fr
         
         
         
         
X

E7M

variations
         
         
         
         
X
X
1
4
4
4
6 fr
         
         
         
         
X
1
3
2
4
1
6 fr
         
         
         
         
X
1
X
3
4
2
3 fr
         
         
         
         
X
4
3
1
1
1
10 fr
         
         
         
         
X
X
4
3
2
1
11 fr
         
         
         
         
1
4
2
3
1
1

Badd9

variations
3 fr
         
         
         
         
3
1
1
1
1
4
6 fr
         
         
         
         
X
X
3
2
1
4
10 fr
         
         
         
         
X
4
1
1
2
1
10 fr
         
         
         
         
X
3
2
1
4
1
10 fr
         
         
         
         
X
3
1
1
4
1
No chord
Standard guitar tuning:
E
A
D
G
B
E
Capo on 2 fret
    Am   Cm   E    Em   B    F   F B

Fm Bm D Dm A E E/G

e:---2-----2----2----1----0----0------0----: B:---2-----3----3----3----2----0------0----: G:---2-----4----2----2----2----1------1----: D:---4-----4----0----0----2----2------2----: A:---4-----2--------------0----2------x----: E:---2-------------------------0------4----:
The Picking Pattern:
 This is the pattern in the 1st verse just as a little inspiration.

Am Am Cm Cm

|-----2-------2---|-----2-------2---|-----2-------2---|-----2-----2-----| |-----2-------2---|-----2-------2---|-----3-------3---|-----3-----3-----| |-----2-------2---|-----2-------2---|-----4-------4---|-----4-----4-----| |-----4-------4---|-----4-------4---|-----4-----4-4---|-----4-----4-----| |-----4-----4-4---|-----4-----4-4-0-|-2---2-0-2---2-0-|-2---2-0-2-2-2-4-| |-2---2-0-2---2-0-|-2---2-0-2---2---|-----------------|-----------------|
  E                 Em                B                 F
|-----2-------2---|-----1-------1---|-----------------|-----------------|
|-----3-------3---|-----3-------3---|-----2-------2---|-----------------|
|-----2-----2-2---|-----2-----2-2---|-----2-------2-0-|-1---------------|
|-0---0-0-0---0-0-|-0---0-0-0---0-0-|-----2-----2-2-0-|-2---------------|
|-----------------|-----------------|-0---0-0-0---0-0-|-2---------------|
|-----------------|-----------------|-----------------|-0---------------|
1st & 2nd Verse:

Am Am Cm Cm

E Em B F

Chorus

Am Cm F B F B

Am Cm F F

Interlude

Am Am Am Am

3rd & 4th Verse:

Am Am Cm Cm

E E B F

Chorus 2x Interlude

Verse

similar to 1st verse) Final Chorus:

Am Cm F B F B

Am Cm F F

Outro

||: Am | Am | Am | Am :|| repeat till fade out 2. ______________ / Jason Mraz / / Wordplay /
 Chords:
     G   Cadd9   D   Em7   Am7   Em   D/F   Adim6   B    C
e:---3-----3-----2----0-----0----0-------------------7----0---:
B:---3-----3-----3----3-----1----0-----3------10-----7----1---:
G:---0-----0-----2----0-----0----0-----2-------9-----8----0---:
D:---0-----2-----0----2-----2----2-----0------10-----9----2---:
A:---2-----3----------2-----0----2-----0-------9-----9----3---:
E:---3----------------0----------0-----2-------------7--------:
 fill-1:             fill-2:

Em7 C

|-----------------| |-0---------------| |-----------------| |-1---------------| |-----------------| |-0---------------| |-----------------| |-2---------------| |---------2-------| |-3---2---0-------| |-0---3---0-------| |-------------3---|

Intro

G Cadd9 D D

G Cadd9 D D

Verse

||: Em7 | G | Am7 | Am7 :|| x4

| fill-1 | G | Am7 | Am7 |

Chorus

||: G | Cadd9 | D | D :|| x3

Em D/F Cadd9 Cadd9

Interlude

Break

G Cadd9 D D

Verse

break on G after fill-1) Chorus + | Cadd9 | Cadd9 |

Bridge

Adim6 Adim6 B B

| Em | D | C | fill-2 |

Adim6 Adim6 B B B B

Chorus

quiet, build up at the end) Chorus, end on the first Cadd9 3. ____________________ / Jason Mraz / / Geek in the Pink / Chords: Right below I've written some chords if you were to play the whole thing on guitar. In the small tab chart in the right side I've indicated the chords that the funky guitar actually plays in the song (it's out in the bridge though).
    Bm   F   Em7   Cm7(5)   F    C   A   Fm   A C   F/A
e:---1----2-------------------1--------------1------------1----:
B:---2----2-----7-------4-----1----6----4----1-----1------1----:
G:---3----3-----6-------3-----2----6----5----1-----1------2----:
D:---3----4-----8-------4-----3----6----6----3-----1------3----:
A:---1----4-----6-------3-----3----4----6----3-----3------0----:
E:--------2-------------------1---------4----1-----------------:

Intro

E A D G B E

Bm Bm F F Bbm | x x x 6 6 6 | Em7 Em7 Cm7(5) F Gb | x x x 6 7 6 |

Verse

Ebm7 | x x x 8 7 6 | Bm Bm F F Cm7b5 | x x 4 5 4 x | Em7 Em7 C A F and F/A | x x 7 5 6 x |

Chorus

Db | x x 6 6 6 x | Bm Bm F F Ab | x x 6 5 4 x | 1.,2. |_|_|_|_|_|_|_|

Em7 Em7 Cm7(5) F

3.

C A

Interlude

similar to intro)

Verse

similar to previous) Chorus

Bridge

F F Bm Bm

Fm Fm Bm A C C A

F F Bm Bm

Cm7(5) Cm7(5) F F

Verse

Bm Bm F F

Em7 Em7 C A F/A

Chorus

Outro

Bm Bm F F

| Em7 | Em7 | C | F/A :|| ...end on Bm 4. ___________________________ / Jason Mraz / / Did You Get My Message? / / feat. Rachael Yamagata /

Intro

verse): _E_A_D_G_B_E_

||: Em | C6 | A/C | B B :|| x4 | | | | | | | |

D#m | x 6 8 8 7 6 | Verse C#6 | x 4 6 6 6 6 | G#/C | x 3 6 5 4 x |

Pre-chorus

| G#m | G#m | C# | A#/D | B | x 2 4 4 4 x | | D#m | C# | G#/C | G#/C | A# | x 1 3 3 3 x | | G#m | G#m | C# | A#/D | G#m | 4 6 6 4 4 4 | C# | x 4 6 6 6 x |

Chorus

| B | B F/B | Am | C | B/D | x 5 8 7 6 x |

| D#m | C# | G#/C | G#/C | F#/A# | x 1 4 3 2 x |

| B | B F/B | Am | C | F | 2 4 4 3 2 2 |

Bm/D | x 5 4 4 3 x | Verse |_|_|_|_|_|_|_|

Bridge

F F B Bm D

Chorus
 Guitar Interlude (½ verse):

Em C6 A C B B

||-----------------------|-----------|----------------------|----------------|| ||o----------------------|-----------|----------------------|---------------o|| ||----------11-13--11h13~|~~-11------|---------11-13--11h13~|~~-11--13b15----|| ||----11h13--------------|------13---|---11h13--------------|----------------|| ||o----------------------|-----------|----------------------|---------------o|| ||-----------------------|-----------|----------------------|----------------||
½ Verse Pre-Chorus Chorus 4x Bridge, end on Bm/D 5. _________________ / Jason Mraz / / Mr. Curiosity /
     B   Dm7   Fm   Cm   Em   F   E   Gm   D7   Gm9   F   Fadd11
     G    Bm7   Dm   Am   Cm    D   C    Em   B7   Em9   E   Dadd11
e:---3-----2----1----0-----3----2---0----0----2-----0------------------:
B:---0-----3----3----1-----4----3---1----0----0-----3----4------3------:
G:---0-----2----2----2-----5----2---0----0----2-----0----3------0------:
D:---0-----4----0----2-----5----0---2----2----1-----4----5------4------:
A:---2-----2---------0-----3--------3----2----2-----2----6------5------:
E:---3-----------------------------------0----------0------------------:

Intro

verse):

B Dm7 Fm Cm

Em B Cm F

2x Verse

Chorus

E B Dm7 Gm F

E B D7 D7

2x Verse Chorus

Bridge

Gm9 F Gm9 F

Em B Em Fadd11 Fadd11

1x Verse (opera) 2x Chorus, end on Gm9
  Em                B                Cm                F
|-3--------------3-|-----------------|-----------3---2-|-------10--------|
|---4-3------------|---3-------------|---------3-------|-----3-10--------|
|-------5----------|-----5-4---------|-2-4-5-----------|---2---11--------|
|----------(5)(5)--|-----------------|-------2---------|-0---------------|
|-3----------------|-----------------|-0-----------3---|-----------------|
|------------------|-3---------------|-----------------|-----------------|
6. _________________ / Jason Mraz / / Clockwatching / In this song there are the figure/riff and a couple of chords. The verses include both the riff and then the chords of the riff, just casually picked. So I'll just write like 2x Riff, then pick the chords, which I just notate in common bars. All the used chords can be seen right below. The chords in the chorus are just regularly strummed. It's really not complicated :)
 Chords:
     C   D11        Bm6   G   D   Am7   Bsus2     G/B   Bb6sus2
e:---0------0--------------3---2----0------1----- -----------------:
B:---1------3--------3-----3---3----1------1----- ---3-------6-----:
G:---0------0--------0-----0---2----0------3----- ---0-------5-----:
D:---2------4--------4-----0---0----2------3----- ---0-------5-----:
A:---3------5--------2-----2--------0------1----- ---2-------x-----:
E:-------------------------3--------------------- -----------6-----:
(The last two chords are used live. The G/B is played instead of the Bmb6 and the Bb6sus2 instead of the Bbsus2. I just thought I'd spice things up with some alternatives here ;)
    C                 D11               Bm6              C
G |-----------------|-----------------|-----------------|-----------------|
U |-------1---------|-----3-----------|-------3---------|-----1-----------|
I |-----0-----0-----|---0-------------|-----0-----0-----|---0-------------|
T |-2-------------0-|-4---------------|-4-------------0-|-2---------------|
A |-----------------|-----------------|-----------------|-----------------|
R |-----------------|-----------------|-----------------|-----------------|
B |-5---------------|-7---7-----------|-----------------|-----------------|
A |-------5---------|---7-------------|-------4---------|-----------------|
S |-----------------|-----------------|-2---------------|-3---------------|
S |-----------------|-----------------|-----------------|-----3-----------|

Intro

2x Riff 1st Verse: 2x Riff, then pick:

C D11 Bm6 C C

2nd Verse: 2x Riff, then pick:

C D11 Bm6 C

C D11 Bm6 C

C D11 G G

Chorus

||: G | D | Am7 | Am7 :|| 3x

||: Bsus2 | Am7 | G | G :|| 2x

Bsus2 C G G

Bsus2 Am7 Am7 Am7

3rd Verse: ||: C | D11(no7) | Bm6 | C :|| 4x

C D11 G G

Chorus

||: G | D | Am7 | Am7 :|| x3

||: Bsus2 | Am7 | G | G :|| x2

Bsus2 C G G

Bsus2 Bsus2 Am7 Am7

Am7 Am7

Interlude

2x Riff

Bridge

||: C | D11(no7) | Bm6 | C :|| 5x

Outro

C D11 Bm6 C

C D11 Bm6 Am7

7. ______________ / Jason Mraz / / Bella Luna /
 Chords:
     Am  Am7  Bdim7  Fmaj7#11  E    Am9  Bdim7/11  Dm9    Dm  G   C   F   E
e:---5----5-------------0------0-- --0-----0--------0-- --5---3-------1---0---:
B:---5----5-----3-------0------0-- --0-----3--------6-- --6---3---5---1---0---:
G:---5----5-----2-------2------1-- --5-----2--------5-- --7---4---5---2---1---:
D:---7----5-----3-------3------2-- --7-----3--------7-- --7---5---5---3---2---:
A:---7----7-----2----------------- --0-----2--------5-- --5---5---3---3---2---:
E:---5----5----------------------- -------------------- ------3-------1---0---:

Intro

Am Am7 Bdim7 Bdim7

Bdim7 F7Madd11 E Am Am

 *Electric guitar fill
---------|-----------|-------------|--------------|--------------|
-1p0-----|-----------|-----1p0-----|--------------|--------------|
-----2-0-|-0h2~------|---------2-0-|-2s4----5---4-|-----4--5--7--|
---------|-----------|-------------|--------------|--------------|
---------|-----------|-------------|--------------|--------------|
---------|-----------|-------------|--------------|--------------|
|------------------|-----------------|-----------|------------|
|------------------|-----------------|-----------|------------|
|-(7)\-4----4h5s10-|--------9--7--5h7|s9~~-------|-(9)\-------|
|------------------|-----------------|-----------|------------|
|------------------|-----------------|-----------|------------|
|------------------|-----------------|-----------|------------|

Verse

| Am9 | Am9 | Bdim7/11 | Bdim7/11 | | Bdim7/11 | Bdim7/11 | Am9 | Am9 |

Dm9 Dm9 Am9 Am9

Bdim7 Bdim7 E E

Interlude

Am7 Bdim7 F7Madd11 E

*Electric guitar fill
---------|-----------|-------------|--------------|--------------------|
-1p0-----|-----------|-----1p0-----|-5s6~-------5-|--------10--13--13--|
-----2-0-|-0h2~------|---------2-0-|--------------|-------9------------|
---------|-----------|-------------|--------------|------10------------|
---------|-----------|-------------|--------------|-----12-------------|
---------|-----------|-------------|--------------|--------------------|
|-------------------|---------------------|------------------|-------------|
|-13p12-12-12p10-10-|-10p8--8--8s6--6--5--|-6~-----6s8--5----|-----(5)\----|
|-------------------|---------------------|------------------|-------------|
|-------------------|---------------------|------------------|-------------|
|-------------------|---------------------|------------------|-------------|
|-------------------|---------------------|------------------|-------------|
Verse

Pre-chorus

Dm G C F

Dm Dm E E

Interlude

chords similar to previous) *Electric guitar fill
----12-12-|-12s10-10-10s8---8-|--8s7--7--7--7--7|s5----------------|----------|
-13-13-13-|-13s12-12-12s10-10-|-10s8--8--8--8--8|s6~~----5h6p5---5-|-5~-------|
----------|-------------------|-----------------|--------------7---|----------|
----------|-------------------|-----------------|------------------|----------|
----------|-------------------|-----------------|------------------|----------|
----------|-------------------|-----------------|------------------|----------|
|--------------------|----------------|------------------|-----------|
|--5h6p5---5---------|----------------|------------------|-----------|
|--------7---7-5-4---|--------------4-|-4s5------4-5s9---|-----------|
|------------------7-|-5--------6-7---|------------------|-----------|
|--------------------|---8------------|------------------|-----------|
|--------------------|----------------|------------------|-----------|
Verse

Chorus

Am Dm G C

F Dm E E

Guitar solo

||: Am7 | Am7 | Bdim7/11 | Bdim7/11 | | Bdim7/11 | Bdim7/11 | Am9 | Am9 :||
 *Classical guitar solo
|--------------|--------------|-------------|--------------|
|----5-5-5-5-5-|--5--5--6--5--|-------------|------------5-|
|--------------|--------------|--7--------7-|--7-----------|
|--------------|--------------|-------------|--------------|
|--------------|--------------|-------------|--------------|
|--------------|--------------|-------------|--------------|
|----------------|------------------|--------------|---------------|
|----------------|------------------|--------------|-------5-5-5-6-|
|--7---7-7---7-7-|-----7--7--7h9--7-|---5-5s4--5---|---5-7---------|
|----------------|------------------|--------------|---------------|
|----------------|------------------|--------------|---------------|
|----------------|------------------|--------------|---------------|
|----------------|------7--8--10-10s12-|--12h13-12-10-10h12p10---|------------|
|-6h8-8-8s10--10-|---------------------|-------------------------|------------|
|----------------|---------------------|-------------------------|------4-5-7-|
|----------------|---------------------|-------------------------|------------|
|----------------|---------------------|-------------------------|------------|
|----------------|---------------------|-------------------------|------------|
|-----------------------|-----------5-7-8-|-7h8p7---5-----------|--------------|
|-5--5-----5--------5-6-|-8--8~-6-8-------|-------------8---6---|-5------------|
|-------7-----4-5-7-----|-----------------|---------------------|-----7---5\---|
|-----------------------|-----------------|---------------------|--------------|
|-----------------------|-----------------|---------------------|--------------|
|-----------------------|-----------------|---------------------|--------------|
½ Verse:

Dm Dm Am9 Am9

| Bdim7/11 | Bdim7/11 | E | E | Pre-Chorus ½ Chorus

Outro

(similar to Interlude), end on Am9 *Electric guitar fill
---------|-----------|-------------|---------------|--------------------|
-1p0-----|-----------|-----1p0-----|-5s6~---/8---5-|------------13--13--|
-----2-0-|-0h2~------|---------2-0-|---------------|---------9----------|
---------|-----------|-------------|---------------|-------10-----------|
---------|-----------|-------------|---------------|------12------------|
---------|-----------|-------------|---------------|--------------------|
|-------------------|---------------------|----------|------|------------|------
|-13-12-12-12-10-10-|-10-8--8--8s6--6--5--|-6~-------|-5\---|-5----------|------
|-------------------|---------------------|----------|------|----7--5--4-|------
|-------------------|---------------------|----------|------|------------|-5t7--
|-------------------|---------------------|----------|------|------------|------
|-------------------|---------------------|----------|------|------------|------
                                            F7Madd11   E                   Am9
                                          |----------|------|------------|-0^---
                                          |-0--------|-0----|------------|-0^---
                                 Rhythm   |-2--------|-1----|------------|-5^---
                                 Guitar > |-3--------|-2----|-2--0-------|-7^---
                                 ending   |----------|------|-------3--2-|-0^---
                                          |----------|------|------------|------
8. ______________ / Jason Mraz / / Plane /
    Em   F   B    B7   B   F C   B7M

Cm E A A7 A E/B A7M

e:---4----0----5-----4----4------0-------0----: B:---5----0----5-----4----4------0-------2----: G:---6----1----6-----5----5------1-------1----: D:---6----2----7-----4----6------2-------2----: A:---4----2----7-----6----6------2-------0----: E:--------0----5-----4----4-------------------:

Intro chords

The first four chords are the piano chords on the album-version. It's impossible transcribe the piano exactly for guitar, but this is the best sounding way I could come up with. The last two chords are the ones Jason plays around with as a foreplay when playing it acoustic.
   Em         Fadd9  B7M         B7      Em  Badd9
 :-----0----------2-----------0---------4---- ---0------0----:
 :-----7----------0-----------7---------7---- ---5------0----:
 :-----6----------1-----------6---------5---- ---6------6----:
 :-----6----------2-----------6---------4---- ---6------7----:
 :-----4----------2-----------0---------6---- ---4------7----:
 :----------------0---------------------4---- ----------5----:

Intro

Em Fadd9 B7M B7

G

Verse

||: Em | F | B | B7 :|| x4

Chorus

||: B | F | B | B :|| x4

Verse Chorus

Bridge

Em F C B7M B7M

Em F C B B7

Verse 1½ Chorus 1½ Verse, end on D#m 9. ______________ / Jason Mraz / / O. Lover /

Intro

Dm Dm B7M9 B7M9

Verse

||: Bm7 | Bm7 | Gm | Fm :|| x4

Fm

Chorus

Em Fm7 Em Fm7

Em Fm7 Em Fm7

Verse Chorus ½ Intro Verse Chorus

Bridge

Bm C G A Bdim

Interlude

Dm9 Dm9 B B

Dm9 Dm9 B B

F7M F7M A Bdim

Outro

||: Bm | Bm | Gm7 | Fm :|| x4

There are actually no chords played here. It's just the riff below, played by the bass and vocals. This is the riff played on guitar
 on a live-version I found:

Bm Bm Gm7 Fm

|-----------------|-----------------|-----------------|-----------------| |-----------------|-----------------|-----------------|-----------------| |-----------------|-----------------|-----------------|-----------------| |-----------------|-----------------|---5-3-----------|---4-2-----------| |---9-7---5-4-----|---9-7---5-4-----|---------7-5-----|---------5-4-----| |-------------5-7-|-------------5-3-|-------------5-2-|-------------5-7-|
Guitar Chords: Dm(add9) x 5 7 7 6 0 or 6 x 5 5 6 8 (live variation) 10._________________________ / Jason Mraz / / Please Don't Tell Her / In this song there's basically just the main round, which makes up the intro, the verse and the chorus with a couple of breaks, and then there are the three pre-choruses. So instead of writing the same chords over again, I've just written how many rounds long each part is, simple :) The Main Round:

E Cm7 Am7 Aadd9 B

 Chords:

E Cm7 Am7 Aadd9 B Fm B7 Am Cm B A F

e:---0----0-------------0--------0----- -----------------------------------: B:---0----0-----4-------0--------0----- ---2----4----4----5----4---2---2---: G:---1----6-----4-------6--------8----- ---2----2----4----6----4---2---3---: D:---2----6-----4-------7--------9----- ---4----4----6----6----4---2---4---: A:---2----4-----x-------7--------9----- ---4----2----6----4----2---0---4---: E:---0----------4-------5--------7----- ---2---------4-----------------2---:

Intro

1 round, break on B(add11)

Verse

2

Pre-chorus

Fm B7 Am Cm

Fm B7 B7

Intro

1

Verse

2

Pre-chorus

Fm B7 Am Cm B

[break on 3]

A F F

Chorus

2, break on the second B(add11)

Intro

1

Verse

2

Pre-chorus

Fm B7 Am Cm

Fm B7 Am Cm B

2/4 4/4 | A | F | F | break |

Chorus

4, break on the first and fourth B(add11)

Outro

1 11.________________ / Jason Mraz / / The Forecast /
 Chords:

F7M E7M Dm7 Badd9 A Gm F C A C F

e:----8------6------5------8----- --------------- ----------------1---:
B:---10------8------6------6----- ---4---3---2--- ---6---4----8---1---:
G:----9------7------5------5----- ---5---3---3--- ---6---5----9---2---:
D:---10------8------7------5----- ---3---3---1--- ---6---6---10---3---:
A:----8------6------5------------ --------------- ---4---6---10---3---:
E:-------------------------6----- ---4---3---2--- -------4----8---1---:

Intro

F7M E7M Dm7 Badd9

Verse

F7M Badd9 F7M B

F7M Badd9 F7M B

Chorus

A Gm F F7M Badd9

A Gm F

F7M Badd9 F7M B

Verse Chorus

Bridge

C A C F

C A C C

2x Intro Verse

Outro

Chorus:

||: A | Gm F | F7M | Badd9 :|| 4x

A Gm F

12._____________________ / Song for a Friend / / Jason Mraz / Chords:
    Bm          Fm        A   Em9 G   Bm E   B     Em9   A7
e:-----0-------------2-----------0------------------- ---0----0----:
B:-----3-------------2-----------3------3-------3---- ---3----2----:
G:-----4-------------4-----------4------4-------4---- ---0----0----:
D:-----4-------------4-----------4------4-------4---- ---4----2----:
A:-----2-------------0-----------x------x-------x---- ---2----0----:
E:-------------------------------3------0-------2---- ---0---------:

Intro

Bm Fm A Em9 G Bm E B

Verse

Chorus

Em9 A7 Bm Fm A Em9 G

Em9 A7

½x Interlude Verse Chorus Interlude

Bridge

Em9 A7 Em9 A7

Em9 A7 Em9 A7

Interlude Verse Chorus 4x Interlude 5x Interlude (quiet part) 4x Ending Verse (break down the last time, end on Bm.)