Jet - Hey Kids Chords

Main Riff
Main Riff
Main Riff
 
         
         
         
         
         
X
1
2
3
5 fr
         
         
         
         
         
1
3
4
2
1
1
2 fr
         
         
         
         
         
X
1
1
1
4
         
         
         
         
         
X
X
1
2
2 fr
         
         
         
         
         
3
2
1
1
1
4
7 fr
         
         
         
         
         
X
X
1
3
4
3

9 fr
         
         
         
         
         
X
4
3
1
2
1
12 fr
         
         
         
         
         
X
1
3
3
3
1
         
         
         
         
         
3
2
4
3 fr
         
         
         
         
         
1
3
4
2
1
1
         
         
         
         
         
2
1
3
4
3 fr
         
         
         
         
         
X
X
3
2
1
1
5 fr
         
         
         
         
         
X
X
1
3
4
3
7 fr
         
         
         
         
         
X
4
3
1
2
1

10 fr
         
         
         
         
         
X
1
2
3
4
X
10 fr
         
         
         
         
         
X
1
3
3
3
1
12 fr
         
         
         
         
         
3
2
1
1
1
4
         
         
         
         
         
X
X
1
3
2
2 fr
         
         
         
         
         
X
4
3
1
2
1
5 fr
         
         
         
         
         
X
1
2
3
4
1
5 fr
         
         
         
         
         
X
1
4
4
4
X
7 fr
         
         
         
         
         
4
3
1
1
1
X
7 fr
         
         
         
         
         
3
2
1
1
1
4

10 fr
         
         
         
         
         
1
3
4
2
1
1
12 fr
         
         
         
         
         
X
X
1
3
4
3
5 fr
         
         
         
         
         
X
X
         
         
         
         
         
X
3
2
1
3 fr
         
         
         
         
         
X
1
2
3
4
1
8 fr
         
         
         
         
         
1
3
4
2
1
1
3 fr
         
         
         
         
         
X
1
X
3
4
1
5 fr
         
         
         
         
         
3
2
1
1
1
4
10 fr
         
         
         
         
         
X
X
1
3
4
3

12 fr
         
         
         
         
         
X
4
3
1
2
1
3 fr
         
         
         
         
         
X
No chord
Standard guitar tuning:
E
A
D
G
B
E
No capo
Then: A G D A Then Verse: AHey kids, you diGd it all yourselves. DYou'll never change the world, so what you thiAnk about that? AHey dad, the sGuit is on your back, so take your boDots off my neck,and get back to your mAoney stack

Pre-chorus

AA DD GDG AA

Chorus

AHey Akids, Cfake iCt, ID saw you wearDing fAlaresA, ATurned Ato Cthat Cshit, Dyou used to hDave long haAir

Verse

AHey old man, remGember Vietnam? DYou hated Vietnam, but you Adig Afghanistan AHey kids, you dGid it all yourselves. You cDan't turn around now, no-no now go pAlay with someone else

Pre-chorus here

Chorus

AHey kAids, fCake iCt, wDe'll all see yDou in hAell, A Woo hoo hAoo hoo hoo, hCoo hoo hoo, hDoo hoo hoo Ahoo x4

Solo part

                                                      A
------------------------------------------------|
------------------------------------------------|
-----2-----2-----5p2----------2----------5p2----|
---2---2-----2-------5------2---2----2--------5-|
-0-------0---------------0--------0-------------|
------------------------------------------------|
-----------------------------------------------|
-----------------------------------------------|
---2-2--0--2-2-----5p2-------------------------|
---2-2--0--2-2---------5-----------------------|
-0-------------(0)-----------------------------|
-----------------------------------------------|
-----------------------------8-----------------|
-10--10--8--10--10-10--8h10--------------------|
-----------------------------------------------|
-----------------------------------------------|
-----------------------------------------------|
-----------------------------------------------|
-----------------------------------------------------|
-----------------------------------------------------|
-2--2--2--2-2-------------------------2--------------|
-2--2--2--2-2-------xwhatever---------2-let-ring-----|
-0--0--0--0-0-------------------------0--------------|
---------------3-------------------------------------|

Chorus

Woo hoo hAoo hoo hoo, hooC hoo hoo, hoDo hoo hoo hooA x4

End A D D

Peace---Zak Lo