Jethro Tull - Dun Ringill Chords

 
         
         
         
         
X
3
2
1
3 fr
         
         
         
         
X
1
2
3
4
1
8 fr
         
         
         
         
1
3
4
2
1
1
3 fr
         
         
         
         
X
1
X
3
4
1
5 fr
         
         
         
         
3
2
1
1
1
4
10 fr
         
         
         
         
X
X
1
3
4
3

12 fr
         
         
         
         
X
4
3
1
2
1
3 fr
         
         
         
         
X
         
         
         
         
X
X
1
3
2
2 fr
         
         
         
         
X
4
3
1
2
1
5 fr
         
         
         
         
X
1
2
3
4
1
5 fr
         
         
         
         
X
1
4
4
4
X
7 fr
         
         
         
         
4
3
1
1
1
X
7 fr
         
         
         
         
3
2
1
1
1
4

10 fr
         
         
         
         
1
3
4
2
1
1
12 fr
         
         
         
         
X
X
1
3
4
3
5 fr
         
         
         
         
X
X
         
         
         
         
3
2
4
3 fr
         
         
         
         
1
3
4
2
1
1
         
         
         
         
2
1
3
4
3 fr
         
         
         
         
X
X
3
2
1
1
5 fr
         
         
         
         
X
X
1
3
4
3
7 fr
         
         
         
         
X
4
3
1
2
1

10 fr
         
         
         
         
X
1
2
3
4
X
10 fr
         
         
         
         
X
1
3
3
3
1
12 fr
         
         
         
         
3
2
1
1
1
4
         
         
         
         
1
3
4
2
1
1
5 fr
         
         
         
         
X
4
3
1
2
1
3 fr
         
         
         
         
X
X
1
2
4
3
         
         
         
         
X
X
3
2
1
1
8 fr
         
         
         
         
X
1
3
3
3
1
10 fr
         
         
         
         
4
3
1
1
1
X

10 fr
         
         
         
         
3
2
1
1
1
4
No chord
Standard guitar tuning:
E
A
D
G
B
E
No capo
    v ^ v ^ v ^    v ^ v ^ v ^   v ^ v ^ v ^   v ^ v ^ v ^   v ^  v ^ v ^
e:|-0-----0-0-0--|-2-----2-2-2-|-0>2---2-2-2-|-0>2---2-2-2-|-3-3--2-2-0-0-
h:|-1-----1-1-1--|-3-----3-3-3-|-3-3---3-3-3-|-3-3---3-3-3-|-3-3--3-3-3-3-
g:|-0-----0-0-0--|-2-----2-2-2-|-0>2---3-3-3-|-0>2---3-3-3-|-2-2--2-2-0-0-
D:|-2-----2-2-2--|-0-----0-0-0-|-0-0---0-0-0-|-0-0---0-0-0-|-0-0--0-0-0-0-
A:|-3-----3-3-3--|-------------|-------------|-------------|--------------
E:|--------------|-------------|-------------|-------------|--------------
wee hours I'll meet you ... down by Dun
    v ^ v ^ v ^    v ^ v ^ v ^
e:|-0-----0-0-0--|-0-----0-0-0--|
h:|-1-----1-1-1--|-1-----1-1-1--|
g:|-0-----0-0-0--|-0-----0-0-0--|
D:|-2-----2-2-2--|-2-----2-2-2--| ... from beginning
A:|-3-----3-3-3--|-3-----3-3-3--|
E:|--------------|--------------|
Ringill .... We'll wait in stone circles 'til the force comes through. Lines join in faint discord as the Stormwatch brews. A concert of Kings as the white sea snaps. And the heels of a soft prayer whispered In the wee hours I'll meet you down by Dun Ringill now take you quickly by Dun Ringill
End
    v ^ v ^ v ^   v ^ v ^ v ^   v ^ v ^ v ^   v ^ v ^ v ^
e:|-------0-0-0-|-------0-0-0-|-------0-0-0-|-------0-0-0-|
h:|-------3-3-3-|-------3-3-3-|-------3-3-3-|-------3-3-3-|
g:|-------2-2-2-|-------0-0-0-|-------0-0-0-|-------0-0-0-|
D:|-------0-0-0-|-------0-0-0-|-------0-0-0-|-------0-0-0-|
A:|-2-----2-2-2-|-1-----1-1-1-|-1-----1-1-1-|-1-----1-1-1-|
E:|-------------|-------------|-------------|-------------|
slowly:
    ^
e:|-/-0-0-----|-----0--5-
h:|-\-3--3----|----1-----
g:|-/-0---0---|---2------
D:|-\-0----0--|--2-------
A:|-/-1-----1-|-0--------
E:|-----------|----------
Subject: Dun Ringill TAB : Jethro Tull Send corrections and questions to: Best regards. Peter Kabanov. Moscow, Russia. DUN RINGILL v: strike strings from E->e ^: strike strings from e->E
                      v ^  v    ^ v   ^ v ^ v ^ v ^    v ^ v ^ v  ^
e:|-------------------0----0-|--------2--0--------0--0-|
h:|-------------------1----0-|------3-3--3------3-3--1-|
g:|----2-----2---2----2----2-|----2---2--0----2---2--2-|And again this patrn
D:|--2------2---0-----0----0-|--0-----0--0--0-----0--0-|
A:|-0-----------------0----0-|-------------(0)---------|
E:|--------3---2-----(2)--(2)|-------------------------|
Clear light from a slick palm ... As I Miss deal the day Slip the night from a shaved pack make a marked card play Call twilight hours down From a Hea- ven home High above the highest bidder for the good Lord's throne In the ... watch the Gods play by Dun Rin- gill

C D G

    v ^ v ^ v ^    v ^ v ^ v ^   v ^ v ^ v ^   v ^ v ^ v ^   v ^  v ^ v ^
e:|-0-----0-0-0--|-2-----2-2-2-|-0>2---2-2-2-|-0>2---2-2-2-|-3-3--3-3-3-3-
h:|-1-----1-1-1--|-3-----3-3-3-|-3-3---3-3-3-|-3-3---3-3-3-|-0-0--0-0-0-0-
g:|-0-----0-0-0--|-2-----2-2-2-|-0>2---2-3-3-|-0>2---2-2-2-|-0-0--0-0-0-0-
D:|-2-----2-2-2--|-0-----0-0-0-|-0-0---0-0-0-|-0-0---0-0-0-|-0-0--0-0-0-0-
A:|-3-----3-3-3--|-------------|-------------|-------------|-2-2--2-2-2-2-
E:|--------------|-------------|-------------|-------------|-3-3--3-3-3-3-
wee hours I'll meet you ... down by Dun

F

    v ^ v ^ v ^    v ^ v ^ v ^
e:|--------------|--------------|
h:|-1------------|--------------|
g:|-2----(2)-(2)-|(2)----2-2-2--|
D:|-3-----3---3--|-3-----3-3-3--| ... from beginning
A:|-3-----3---3--|-3-----3-3-3--|
E:|-1-----1---1--|--------------|
Ringill .... We'll wait in stone circles 'til the force comes through. Lines join in faint discord as the Stormwatch brews. A concert of Kings as the white sea snaps. And the heels of a soft prayer whispered In the wee hours I'll meet you down by Dun Ringill now take you quickly by Dun Ringill