Joan Jett - Everyday People Chords

 
         
         
         
         
         
3
2
4
3 fr
         
         
         
         
         
1
3
4
2
1
1
         
         
         
         
         
2
1
3
4
3 fr
         
         
         
         
         
X
X
3
2
1
1
5 fr
         
         
         
         
         
X
X
1
3
4
3
7 fr
         
         
         
         
         
X
4
3
1
2
1

10 fr
         
         
         
         
         
X
1
2
3
4
X
10 fr
         
         
         
         
         
X
1
3
3
3
1
12 fr
         
         
         
         
         
3
2
1
1
1
4
         
         
         
         
         
X
3
2
1
3 fr
         
         
         
         
         
X
1
2
3
4
1
8 fr
         
         
         
         
         
1
3
4
2
1
1
3 fr
         
         
         
         
         
X
1
X
3
4
1
5 fr
         
         
         
         
         
3
2
1
1
1
4
10 fr
         
         
         
         
         
X
X
1
3
4
3

12 fr
         
         
         
         
         
X
4
3
1
2
1
3 fr
         
         
         
         
         
X
         
         
         
         
         
1
3
4
2
1
1
5 fr
         
         
         
         
         
X
4
3
1
2
1
3 fr
         
         
         
         
         
X
X
1
2
4
3
         
         
         
         
         
X
X
3
2
1
1
8 fr
         
         
         
         
         
X
1
3
3
3
1
10 fr
         
         
         
         
         
4
3
1
1
1
X

10 fr
         
         
         
         
         
3
2
1
1
1
4
No chord
Standard guitar tuning:
E
A
D
G
B
E
No capo

Intro

PLAY 4x's
   G           C  G G
E -3-----------3--3-3-
B -3-----------5--3-3-
G -4-----------5--4-4-
D -5-----------5--5-5-
A -5-----------3--5-5-
E -3-----------3--3-3-
Joan plays the first G as a Downstroke the C as an Upstroke and the final 2 G's as Downstrokes. NOTE: Throughout the entire song the same pattern above is played over and over.

Verse

SGometimes I'm right tChen GI Gcan be wrong GMy own beliefs aCre iGn Gmy songs A bGutcher, a banker, Ca drGumGmer and then MGakes no difference what grCoup GI'm Gin GI-IC-IG-GI am everyday pGeopleC G G TGhen it's the blue ones wCho caGntG accept The green ones for liviGng with The black ones trCyin tGo Gbe a skinny one DiGfferent strokes foCr diGffeGrent folks SGo on and so on and scoCoby GdoGoby dooby OGoh sCha GshGa WGe gotta live tCogeGthGer

Verse

I am no better and neither are you We are the same whatever we do You love me you hate me You know me and then Still can't figure out the scene I'm in I am everyday people Then it's the new man That doesn't like the short man For being such a rich one That will not help the poor one Different strokes for different folks And so on and so on and scooby dooby dooby Ooh sha sha We got to live together

Break

GUITAR 1:

C G G F F F C G G

E -3-3-3--5-5-5--7-7-7--3-3-3--1-1-1--3-3-3--| B ----------------------5-3-3--1-1-1--5-3-3--| G ----------------------5-4-4--2-2-2--5-4-4--| D ----------------------5-5-5--3-3-3--5-5-5--| A ----------------------3-5-5--3-3-3--3-5-5--| E ----------------------3-3-3--1-1-1--3-3-3--|
                        C G G  F F F  C C C  C G G
E -3-3-3--5-5-5--7-7-7--3-3-3--1-1-1--3-3-3--3-3-3--|
B ----------------------5-3-3--1-1-1--5-5-5--5-3-3--|
G ----------------------5-4-4--2-2-2--5-5-5--5-4-4--|
D ----------------------5-5-5--3-3-3--5-5-5--5-5-5--|
A ----------------------3-5-5--3-3-3--3-3-3--3-5-5--|
E ----------------------3-3-3--1-1-1--3-3-3--3-3-3--|
GUITAR 2:
E -------------------------------------------|
B -------------------------------------------|
G ---------------4-4-4--5-4-4---------5-4-4--|
D -5-5-5--7-7-7----------------7-7-7---------|
A -------------------------------------------|
E -------------------------------------------|
E -------------------------------------------------|
B -------------------------------------------------|
G --------------4-4-4--5-4-4-----------------------|
D -5-5-5--7-7-7--------------7-7-7--4-4-4---7-5-5--|
A -------------------------------------------------|
E -------------------------------------------------|

Verse

There is a yellow one that won't accept the black one That won't accept the red one That won't accept the white one Different strokes for different folks And so on and so on and Scooby dooby dooby Ooh sha sha