Joe Pass - Joy Spring Chords

 
No chord
Standard guitar tuning:
E
A
D
G
B
E
No capo
E-----------------------------------------------------------|
B-----------------------------------------------------------|
G-----2--------5---4---3---------3---------2---3---4---5----|
D-----2--------3---3---3---------2---------2---2---3---3----|
A--------------------------2--3-----------------------------|
E--1------3----5---4---3------------3----1-----3---4---5----|
E-----------------------------------------------------------------------|
B----------------------------------7--7--7------------------------------|
G-----6-------6--------------------6--6--4----3-----3------2-----2------|
D-----6-------5--------------------6--5--6----3-----2------2-----2------|
A---------5---6-------------------------------3-------------------------|
E--6--------------6----------------6--5----------3--2----1----0---------|
E------------------------|
B------------------------|
G------4---------4-------|
D------4---------3-------|
A----------3---4---------|
E--3---4------------3----|
AFTER THAT JUST REPEAT THE FIRST PART BUT ONE FRET HIGHER