Jon Foreman - Learnin How To Die Chords

 
         
         
         
         
3
2
4
3 fr
         
         
         
         
1
3
4
2
1
1
         
         
         
         
2
1
3
4
3 fr
         
         
         
         
X
X
3
2
1
1
5 fr
         
         
         
         
X
X
1
3
4
3
7 fr
         
         
         
         
X
4
3
1
2
1

10 fr
         
         
         
         
X
1
2
3
4
X
10 fr
         
         
         
         
X
1
3
3
3
1
12 fr
         
         
         
         
3
2
1
1
1
4

Cadd9

variations
         
         
         
         
X
2
1
3
X
         
         
         
         
X
3
1
         
         
         
         
X
2
3
8 fr
         
         
         
         
X
X
3
2
1
4
         
         
         
         
X
         
         
         
         
X

A7sus4

variations
         
         
         
         
X
1
3
X
5 fr
         
         
         
         
1
3
1
4
1
1
         
         
         
         
X
         
         
         
         
X
         
         
         
         
X
3 fr
         
         
         
         

Dsus4

variations
         
         
         
         
X
X
1
3
4
2 fr
         
         
         
         
X
3
4
1
2
X
5 fr
         
         
         
         
X
1
3
3
4
1
5 fr
         
         
         
         
X
1
1
3
4
1
10 fr
         
         
         
         
1
3
3
3
1
1
10 fr
         
         
         
         
1
1
3
4
1
1

12 fr
         
         
         
         
X
X
1
3
4
4
         
         
         
         
X
X
1
3
2
2 fr
         
         
         
         
X
4
3
1
2
1
5 fr
         
         
         
         
X
1
2
3
4
1
5 fr
         
         
         
         
X
1
4
4
4
X
7 fr
         
         
         
         
4
3
1
1
1
X
7 fr
         
         
         
         
3
2
1
1
1
4

10 fr
         
         
         
         
1
3
4
2
1
1
12 fr
         
         
         
         
X
X
1
3
4
3
5 fr
         
         
         
         
X
X
         
         
         
         
X
1
3
4
X
X
7 fr
         
         
         
         
1
3
4
X
X
X
9 fr
         
         
         
         
X
X
1
3
4
X
         
         
         
         
X
X
         
         
         
         
2
3
1
4 fr
         
         
         
         
X
4
3
1
2
1
7 fr
         
         
         
         
X
1
4
4
4
X
2 fr
         
         
         
         
X
X
1
2
4
3
4 fr
         
         
         
         
4
3
1
2
1
7 fr
         
         
         
         
X
1
3
3
3
1

9 fr
         
         
         
         
4
3
1
1
1
X
9 fr
         
         
         
         
3
2
1
1
1
4
12 fr
         
         
         
         
1
3
4
2
1
1
4 fr
         
         
         
         
X
         
         
         
         
X
3
2
1
3 fr
         
         
         
         
X
1
2
3
4
1
8 fr
         
         
         
         
1
3
4
2
1
1
3 fr
         
         
         
         
X
1
X
3
4
1
5 fr
         
         
         
         
3
2
1
1
1
4
10 fr
         
         
         
         
X
X
1
3
4
3

12 fr
         
         
         
         
X
4
3
1
2
1
3 fr
         
         
         
         
X
         
         
         
         
X
1
2
3
5 fr
         
         
         
         
1
3
4
2
1
1
2 fr
         
         
         
         
X
1
1
1
4
         
         
         
         
X
X
1
2
2 fr
         
         
         
         
3
2
1
1
1
4
7 fr
         
         
         
         
X
X
1
3
4
3

9 fr
         
         
         
         
X
4
3
1
2
1
12 fr
         
         
         
         
X
1
3
3
3
1

Fadd9

variations
         
         
         
         
X
X
3
2
1
4
5 fr
         
         
         
         
X
3
2
1
4
1
5 fr
         
         
         
         
X
3
1
1
4
1
5 fr
         
         
         
         
X
4
1
1
2
1
10 fr
         
         
         
         
4
1
1
1
1
X
No chord
Standard guitar tuning:
E
A
D
G
B
E
No capo

Intro

x2):
          G           Cadd9          A7sus4         Dsus4 D   Dsus4
         ^  v ^ v       ^            ^  v ^ v        ^  v v ^
  e|-----3--3-3-3--|----3------|-----3--3-3-3--|-----3--2-2-2h3--|
  B|-----3--3-3-3--|----3------|-----3--3-3-3--|-----3--3-3-3----|
  G|-----0--0-0-0--|----0------|-----0--0-0-0--|-----2--2-2-2----|
  D|-----0--0-0-0--|-----------|-----2--2-2-2--|--0--------------|
  A|---------------|--3---3-2--|--0------------|-----------------|
  E|--3------------|-----------|---------------|-----------------|

Verse

          G             Cadd9            A7sus4         Dsus4 D   Dsus4
         ^  v ^ v        ^  v ^ v        ^  v ^ v        ^  v v ^
  e|-----3--3-3-3--|-----3--3-3-3--|-----3--3-3-3--|-----3--2-2-2h3--|
  B|-----3--3-3-3--|-----3--3-3-3--|-----3--3-3-3--|-----3--3-3-3----|
  G|-----0--0-0-0--|-----0--0-0-0--|-----0--0-0-0--|-----2--2-2-2----|
  D|-----0--0-0-0--|-----x--x-x-x--|-----2--2-2-2--|--0--------------|
  A|---------------|--3------------|--0------------|-----------------|
  E|--3------------|---------------|---------------|-----------------|
"I'm gonna miss you... I'm gonna miss you when..."

Verse i

I'm gonna miss you, I'm gonna miss you when you're gone [Repeat Intro] She says I love you, I'm gonna miss hearing your songs [Repeat Intro]

Pre-chorus

         ^  v ^ v        ^  v ^ v        ^  v ^ v        ^  v ^ v
  e|-----0--0-0-0--|-----0--0-0-0--|-----0--0-0-0--|-----0--0-0-0--|
  B|-----5--5-5-5--|-----5--5-5-5--|-----5--5-5-5--|-----5--5-5-5--|
  G|-----4--4-4-4--|-----4--4-4-4--|-----4--4-4-4--|-----4--4-4-4--|
  D|-----2--2-2-2--|-----2--2-2-2--|-----2--2-2-2--|-----2--2-2-2--|
  A|---------------|--3------------|--0------------|--3------------|
  E|--0------------|---------------|---------------|---------------|
"Please..." "talk " "end..." "talk..."
         ^  v ^ v        ^  v ^ v        ^  v ^ v        ^  v ^ v
  e|-----0--0-0-0--|-----0--0-0-0--|-----0--0-0-0--|-----3--3-3-3--|
  B|-----5--5-5-5--|-----5--5-5-5--|-----5--5-5-5--|-----3--3-3-3--|
  G|-----4--4-4-4--|-----4--4-4-4--|-----4--4-4-4--|-----2--2-2-2--|
  D|--2--2--2-2-2--|-----2--2-2-2--|-----2--2-2-2--|--0------------|
  A|---------------|--3------------|--0------------|---------------|
  E|---------------|---------------|---------------|---------------|
"Every..." "thing " "away..." "friend..." I said "B5PleEase, don't B5talCk about the B5endA Don't B5talCk about how B5eveEry living B5thiCng goes away" B5 ShAe said "Dsus4Friend

Chorus

          G               A7sus4          Cadd9           Dsus4
          ^  v ^ v        ^  v ^ v        ^  v ^ v        ^  v ^ v
  e|------3--3-3-3--|-----3--3-3-3--|-----3--3-3-3--|-----3--3-3-3--|
  B|------3--3-3-3--|-----3--3-3-3--|-----3--3-3-3--|-----3--3-3-3--|
  G|------0--0-0-0--|-----0--0-0-0--|-----0--0-0-0--|-----2--2-2-2--|
  D|----------------|-----2--2-2-2--|-----x--x-x-x--|--0------------|
  A|----------------|--0------------|--3------------|---------------|
  E|---3------------|---------------|---------------|---------------|
"Along..." "learning..." "take..." "bend..."
          G              A7sus4              Cadd9
          ^  v ^ v       ^  v ^ v        ^  v ^ v  ^  ^ v
  e|-----3--3-3-3--|-----3--3-3-3--|-----3--3-3-3--3--3-3--|
  B|-----3--3-3-3--|-----3--3-3-3--|-----3--3-3-3--3--3-3--|
  G|-----0--0-0-0--|-----0--0-0-0--|-----0--0-0-0--0--0-0--|
  D|---------------|-----2--2-2-2--|-----x--x-x-x--x--x-x--|
  A|---------------|--0------------|--3--------------------|
  E|--3------------|---------------|-----------------------|
"break..." "live..." "cry..."
            Dsus4               Fadd9             C
         ^  v ^ v  ^  ^        ^  v ^ v        ^  v ^ v
  e|-----3--3-3-3--3--3--|-----3--3-3-3--|-----0--0-0-0--|
  B|-----3--3-3-3--3--3--|-----1--1-1-1--|-----1--1-1-1--|
  G|-----2--2-2-2--2--2--|-----2--2-2-2--|-----0--0-0-0--|
  D|--0------------------|--3------------|-----2--2-2-2--|
  A|---------------------|---------------|--3------------|
  E|---------------------|---------------|---------------|
"I've..." "I've...learning..." Now Repeat Intro x2 Verse Pre-chorus Chorus

Outro

just like intro): GDie Cadd9 A7sus4 D DiGe Cadd9 A7sus4 Dsus4I've been learning how to die Fadd9 I've been Clearning how to G GOD bl3s5 u, sister or brother j:053[d:]Mont3n3gro, the Guatemalan legend (not really). if you can't play the chord (--2450) just play (--2400) it's similar