Jon Foreman - White As Snow Chords

 
No chord
Eb guitar tuning:
D#
G#
C#
F#
A#
D#
Capo on 2 fret

Riff 1

Played through out entire song
Guitar 1
eb|------------------------------|
Bb|------------------------------|
Gb|------2------2------2------2--|
Db|----0------0------0------0----|
Ab|--2------0--------------------|
Eb|----------------3------3------|
Guitar 2
e|------------------------------|
B|------------------------------|
G|------------------------------|
D|------4------4------4------4--|
A|----2------2------2------2----|
E|--4------2------0------0------|

Riff 2

Guitar 1 - 00:11 & 00:28
eb|-----------------|
Bb|-----------------|
Gb|-----------------|
Db|--7--5-----------|
Ab|--------7--5-----|
Eb|--------------7--|
Guitar 2 - 00:11 & 00:28
e|-----------------|
B|-----------------|
G|-----------------|
D|--5--3-----------|
A|--------5--3-----|
E|--------------5--|

Intro

Verse 1

Have mercy on me, oh God According to Your unfailing love According to Your great compassion Blot out my transgressions [Repeat]

Chorus

Would You create in me A clean heart, Oh God Restore in me The joy of Your salvation [Repeat]

Verse 2

The sacrifices of our God Are a broken and contrite heart Against you and you alone have I sinned [Repeat]

Chorus

Bridge

Guitar 1
         Wash me white as snow, and I will be made whole [Repeat]
eb|-------------------------------------------------------|
Bb|--3---3----------------3-----3-------------------------|
Gb|--0---2----------------0-----0-------------------------|
Db|--0---0----------------0-----2-------------------------|
Ab|--x--------------------x-----x-------------------------|
Eb|--3--------------------3-----3-------------------------|
Guitar 2
        Wash me white as snow, and I will be made whole [Repeat]
e|-------------------------------------------------------|
B|--1---1----------------1-----1-------------------------|
G|--2---0----------------2-----2-------------------------|
D|--3---2----------------3-----3-------------------------|
A|--x---3----------------------3-------------------------|
E|--1----------------------------------------------------|

Chorus