Jonathan Coulton - So Far So Good Chords

 
         
         
         
         
         
X
1
3
4
2
1
7 fr
         
         
         
         
         
1
3
4
1
1
1
         
         
         
         
         
X
1
3
4
2
X
7 fr
         
         
         
         
         
X
X
3
1
1
1
9 fr
         
         
         
         
         
X
X
1
3
4
2
11 fr
         
         
         
         
         
X
4
3
1
2
X

A

variations
4 fr
         
         
         
         
         
1
3
4
2
1
1
4 fr
         
         
         
         
         
X
X
3
2
1
1
6 fr
         
         
         
         
         
X
X
1
2
4
3
         
         
         
         
         
3
2
1
1
1
4
8 fr
         
         
         
         
         
X
4
3
1
2
1
11 fr
         
         
         
         
         
X
1
2
3
4
X

11 fr
         
         
         
         
         
X
1
3
3
3
1
         
         
         
         
         
2
3
         
         
         
         
         
1
2
4
3
         
         
         
         
         
         
         
         
         
         
X
X
2
1
1
5 fr
         
         
         
         
         
X
1
3
1
2
1
5 fr
         
         
         
         
         
X
1
X
2
4
3
5 fr
         
         
         
         
         
X
1
3
1
2
4
3 fr
         
         
         
         
         
X
2
1
3
1
4
10 fr
         
         
         
         
         
1
3
X
1
4
1

10 fr
         
         
         
         
         
1
3
1
1
4
1
10 fr
         
         
         
         
         
1
3
1
1
1
1
12 fr
         
         
         
         
         
X
X
1
3
2
2
5 fr
         
         
         
         
         
X
X
         
         
         
         
         
X
X
2
1
3
5 fr
         
         
         
         
         
X
1
3
1
4
1
5 fr
         
         
         
         
         
X
X
1
3
1
10 fr
         
         
         
         
         
1
3
1
2
1
1
5 fr
         
         
         
         
         
X
1
3
3
3
4
7 fr
         
         
         
         
         
4
3
1
1
1
2

10 fr
         
         
         
         
         
1
3
1
2
X
1
10 fr
         
         
         
         
         
1
3
1
2
4
1
12 fr
         
         
         
         
         
X
X
1
3
2
4

Cm

variations
4 fr
         
         
         
         
         
X
1
3
4
2
1
9 fr
         
         
         
         
         
1
3
4
1
1
1
         
         
         
         
         
X
4
2
1
X
X
         
         
         
         
         
X
4
3
1
2
X
4 fr
         
         
         
         
         
X
1
X
X
2
1
11 fr
         
         
         
         
         
X
X
1
3
4
2

4 fr
         
         
         
         
         
X
X

F

variations
         
         
         
         
         
1
3
4
2
1
1
         
         
         
         
         
X
X
3
2
1
1
6 fr
         
         
         
         
         
X
4
3
1
2
1
4 fr
         
         
         
         
         
X
X
1
2
4
3
9 fr
         
         
         
         
         
X
1
3
3
3
1
11 fr
         
         
         
         
         
4
3
1
1
1
X

11 fr
         
         
         
         
         
3
2
1
1
1
4

Bm/A

         
         
         
         
         
X
3 fr
         
         
         
         
         
1
3
1
1
1
1
5 fr
         
         
         
         
         
X
X
1
4
2
3
10 fr
         
         
         
         
         
X
1
X
2
4
3
3 fr
         
         
         
         
         
1
3
1
1
4
1
10 fr
         
         
         
         
         
X
1
3
1
2
1
8 fr
         
         
         
         
         
X
2
1
3
1
4

10 fr
         
         
         
         
         
X
1
3
1
2
X
10 fr
         
         
         
         
         
X
1
3
1
2
4
         
         
         
         
         
X
1
2
3
5 fr
         
         
         
         
         
1
3
4
2
1
1
2 fr
         
         
         
         
         
X
1
1
1
4
         
         
         
         
         
X
X
1
2
2 fr
         
         
         
         
         
3
2
1
1
1
4
7 fr
         
         
         
         
         
X
X
1
3
4
3

9 fr
         
         
         
         
         
X
4
3
1
2
1
12 fr
         
         
         
         
         
X
1
3
3
3
1
         
         
         
         
         
X
X
1
3
2
2 fr
         
         
         
         
         
X
4
3
1
2
1
5 fr
         
         
         
         
         
X
1
2
3
4
1
5 fr
         
         
         
         
         
X
1
4
4
4
X
7 fr
         
         
         
         
         
4
3
1
1
1
X
7 fr
         
         
         
         
         
3
2
1
1
1
4

10 fr
         
         
         
         
         
1
3
4
2
1
1
12 fr
         
         
         
         
         
X
X
1
3
4
3
5 fr
         
         
         
         
         
X
X
         
         
         
         
         
X
1
1
1
3
         
         
         
         
         
X
1
3
5 fr
         
         
         
         
         
1
3
1
2
1
1
7 fr
         
         
         
         
         
X
1
3
2
4
2 fr
         
         
         
         
         
4
3
1
1
1
2
5 fr
         
         
         
         
         
1
3
1
2
4
1

7 fr
         
         
         
         
         
X
X
1
3
2
4
10 fr
         
         
         
         
         
X
3
2
4
1
12 fr
         
         
         
         
         
X
1
3
3
3
4
         
         
         
         
         
3
2
4
3 fr
         
         
         
         
         
1
3
4
2
1
1
         
         
         
         
         
2
1
3
4
3 fr
         
         
         
         
         
X
X
3
2
1
1
5 fr
         
         
         
         
         
X
X
1
3
4
3
7 fr
         
         
         
         
         
X
4
3
1
2
1

10 fr
         
         
         
         
         
X
1
2
3
4
X
10 fr
         
         
         
         
         
X
1
3
3
3
1
12 fr
         
         
         
         
         
3
2
1
1
1
4
3 fr
         
         
         
         
         
1
4
2
3
1
1
5 fr
         
         
         
         
         
X
X
1
4
4
4
         
         
         
         
         
2
X
4
3
1
         
         
         
         
         
3
2
1
         
         
         
         
         
1
X
3
4
2
X
2 fr
         
         
         
         
         
X
X
4
3
2
1

7 fr
         
         
         
         
         
X
4
3
1
1
1

F7

variations
         
         
         
         
         
1
3
1
2
1
1
         
         
         
         
         
X
X
3
2
1
9 fr
         
         
         
         
         
X
1
3
1
4
1
         
         
         
         
         
1
X
2
4
3
X
2 fr
         
         
         
         
         
1
3
1
2
4
1
4 fr
         
         
         
         
         
X
X
1
3
2
4

9 fr
         
         
         
         
         
X
1
3
3
3
4
11 fr
         
         
         
         
         
4
3
1
1
1
2

Cm7

variations
4 fr
         
         
         
         
         
X
1
3
1
2
1
9 fr
         
         
         
         
         
1
3
1
1
1
1
4 fr
         
         
         
         
         
X
1
X
2
4
3
         
         
         
         
         
X
2
1
3
1
4
4 fr
         
         
         
         
         
X
1
3
1
2
4
         
         
         
         
         
X
4
2
1

9 fr
         
         
         
         
         
1
3
1
1
4
1
11 fr
         
         
         
         
         
X
X
1
3
2
2
No chord
Standard guitar tuning:
E
A
D
G
B
E
No capo
Bm/A 4x443x (I use my thumb for the A)

Verse

Em9Today's the A13day it gets better Em9This much I A13know Em9I'm gone, I'm geA13tting out

Bridge

And all you Dm7suckers can watch me D7go And I Cmdon't know where I'm Fgoing Bmyet Bm/A But it's BmsomAewhere quite a Gm7ways from here I'll Abet D A7

Chorus

It's gonna be Gso far, so Dgood

Verse

Em9Too late to A13make it all better Em9This time it's A13real Em9No need for A13looking back

Bridge

Don't have to Dm7talk about how we D7feel And there's Cmno one we can Fpin this Bmon Bm/A 'Cause youBm caAn't see that it'sGm7 going till it'sA goneD A7

Chorus

But we got Gso far, so Dgood

Banjo solo

Bm Bm A G7M F7

G B13 D

Verse

Em9Too bad, we A13could have done better Em9Next time we'll A13know Em9So sad, A13should have been

Bridge

If only Dm7wishing could make it D7so In a Cm7thousand years we'll F7meet agBmain Bm/A With the BmsadAdest smile you'll G7Mask me how I've Abeen D A7

Chorus

I'm gonna say Gso far, so Dgood
Intro and Verse

Em9 A13

-------------------||---------------------------|----------------------------| -------------------||-------7-------------------|-----------7----------------| -------------------||o---------------7----------|--6--------------6----------| -------------------||o------5-----------5-------|--------5-----------5-------| --0--5-----6-------||-7-----------7-------------|----------------------------| -------------------||---------------------------|--5-----------5-------------|
  Em9                          A13
 ----------------------------|---------------------------||
 --------7-------------------|-----------0---------------||
 -----------------7----------|--6--------------6--------o||
 --------5-----------5-------|--------5-----------7-----o||
 --7-----------7-------------|---------------------------||
 ----------------------------|--5-----------5------------||
  Em9                           A13
 ----------------------------|----------------------------|
 --------7-------------------|-----------7----------------|
 -----------------7----------|--6--------------6----------|
 --------5-----------5-------|--------5-----------5-------|
 --7-----------7-------------|----------------------------|
 ----------------------------|--5-----------5-------------|

Bridge

 Dm7                           D7                           Cm
 ----------------------------|----------------------------|----------------------------|
 -----------7----------------|-----------7----------------|-----------5----------------|
 -----------------6----------|--5--------------5----------|-----------------6----------|
 --------7-----------7-------|--------7-----------7-------|--------6-----------6-------|
 --5-------------------------|--5-------------------------|--4-------------------------|
 ----------------------------|----------------------------|----------------------------|
  F                           Bm                           Bm/A
 ----------------------------|-----------2----------------|-----------0----------------|
 -----------2----------------|--3--------------3----------|--3--------------3----------|
 -----------------3----------|-----------------------4----|-----------------------4----|
 --------4-----------4-------|--------4-----------4-------|--------4-----------4-------|
 ----------------------------|--2-----------2-------------|--0-----------0-------------|
 --2-------------------------|----------------------------|----------------------------|
   Bm A                        Gm7                          A
 -----------0----------------|-----------0----------------|-----------------0----------|
 --3--------------3----------|--3--------------3----------|--------2-------------------|
 -----------------------4----|-----------------------4----|----------------------------|
 --------4-----------4-------|--------4-----------4-------|--------2-----------2-------|
 ----------------------------|----------------------------|--0-----------0-------------|
 --4-----------4-------------|--3-----------3-------------|----------------------------|
   D                            A7
 -----------0----------------|----------------------------|-------|
 --3--------------3----------|--------5-------------------|--10---|
 ----------------------------|-----------------6----------|-------|
 --------4-----------4-------|--------5-----------5-------|-------|
 --0-----------0-------------|--0-----------0-------------|--0----|
 ----------------------------|----------------------------|-------|

Chorus

    G
 ||---------------------------|----------------------------|
 ||-------2--------3----------|--2--------3--------2-------|
 ||o------0--------0----------|--0--------0--------0-------|
 ||o--------------------------|----------------------------|
 ||---------------------------|----------------------------|
 ||-3-----3-----3-----3-------|--3-----3-----3-----3-------|
   D
 ----------------------------|---------------------------||
 --------2--------3----------|--2--------3--------2------||
 --------2--------2----------|--2--------2--------2-----o||
 --0-----0-----0-----0-------|--0-----0-----0-----0-----o||
 ----------------------------|---------------------------||
 ----------------------------|---------------------------||
   G
 ----------------------------|----------------------------|
 --------2--------3----------|--2--------3--------2-------|
 --------0--------0----------|--0--------0--------0-------|
 ----------------------------|----------------------------|
 ----------------------------|----------------------------|
 --3-----3-----3-----3-------|--3-----3-----3-----3-------|
   D
 ----------------------------|--2----|
 --------2--------3----------|--2----|
 --------2--------2----------|--2----|
 --0-----0-----0-----0-------|--0----|
 ----------------------------|-------|
 ----------------------------|-------|