Josh Ritter - Come And Find Me Chords

 
No chord
Standard guitar tuning:
E
A
D
G
B
E
No capo

Intro

E----------------------------------------------|
B--------------------0-------3-----------------|
G------0------0------0-------0-----------------|
D----0------0------0------0--------------------|
A--3------2------------------------------------|
E----------------2------3----------------------|
The main riff is pretty a travis style pick pattern
E---------------------------------------------------------------------------|
B----------3------------3-------------3---------------3---------------------|
G------0------0-----0-------0-----0-------0-------0-------0-----------------|
D----0------0-----0-------0-----0-------0-------0-------0-------------------|
A---------------------------------------------------------------------------|
E--3-----3------2-----2-------0-----0-------0h2-----2-----------------------|
If I could trace the line that ran between your smile and your sleight of hand I guess that you put something up my sleeve Now everytime I see your face the bells ring in a far-off place We can find each other this way I believe From the hills up behing my town is naked from the horizon down the curvature is pressed against the raise We walked up in fields alone and the silence fell just like a stone that got lost in wild blue and the gravel gray

Chorus

                     main chorus riff
E---------------------------------------------------------------|
B------------0-------------0-------------0---------------0------|
G--------0-------0-----0-------0-----0-------0-----0---------0--|
D------0-------0-----0-------0-----0-------0-----0---------0----|
A---------------------------------------------------------------|
E--3/7-----7-------5-----5-------2-----2-------3-------3--------|
Come . . . . and . . . . . find . . . . me . . . . . . now Then back into the main riff repeat chorus 2x And though I'm here in this far off place my air is not your time and space I draw you close with every breath You don't know it's right until it's wrong you don't know it's yours until it's gone I didn't know that it was home til' you up and left Come and find me now Come and find me now repeat the main chorus riff 4x I keep you in a flower vase your fatalism crooked face with the daisy's and the violet brocades And I keep me in a vacant lot with the ivy and forget-me-nots Hoping you come and untangle me one of these days Come and find me now Come and find me now repeat the main choruse riff 2x repeat the main riff 2x end on G