Kids In Glass Houses - The Morning Afterlife Chords

 
         
         
         
         
         
X
1
2
3
5 fr
         
         
         
         
         
1
3
4
2
1
1
2 fr
         
         
         
         
         
X
1
1
1
4
         
         
         
         
         
X
X
1
2
2 fr
         
         
         
         
         
3
2
1
1
1
4
7 fr
         
         
         
         
         
X
X
1
3
4
3

9 fr
         
         
         
         
         
X
4
3
1
2
1
12 fr
         
         
         
         
         
X
1
3
3
3
1

Fm

variations
         
         
         
         
         
1
3
4
1
1
1
4 fr
         
         
         
         
         
X
X
1
3
4
2
         
         
         
         
         
X
X
3
1
1
1
9 fr
         
         
         
         
         
X
1
3
4
2
1
6 fr
         
         
         
         
         
X
4
3
1
2
X
         
         
         
         
         
2
3
1
4 fr
         
         
         
         
         
X
4
3
1
2
1
7 fr
         
         
         
         
         
X
1
4
4
4
X
2 fr
         
         
         
         
         
X
X
1
2
4
3
4 fr
         
         
         
         
         
4
3
1
2
1
7 fr
         
         
         
         
         
X
1
3
3
3
1

9 fr
         
         
         
         
         
4
3
1
1
1
X
9 fr
         
         
         
         
         
3
2
1
1
1
4
12 fr
         
         
         
         
         
1
3
4
2
1
1
4 fr
         
         
         
         
         
X
         
         
         
         
         
X
X
1
3
2
2 fr
         
         
         
         
         
X
4
3
1
2
1
5 fr
         
         
         
         
         
X
1
2
3
4
1
5 fr
         
         
         
         
         
X
1
4
4
4
X
7 fr
         
         
         
         
         
4
3
1
1
1
X
7 fr
         
         
         
         
         
3
2
1
1
1
4

10 fr
         
         
         
         
         
1
3
4
2
1
1
12 fr
         
         
         
         
         
X
X
1
3
4
3
5 fr
         
         
         
         
         
X
X
         
         
         
         
         
X
1
3
4
2
1
7 fr
         
         
         
         
         
1
3
4
1
1
1
         
         
         
         
         
X
1
3
4
2
X
7 fr
         
         
         
         
         
X
X
3
1
1
1
9 fr
         
         
         
         
         
X
X
1
3
4
2
11 fr
         
         
         
         
         
X
4
3
1
2
X
No chord
Standard guitar tuning:
E
A
D
G
B
E
No capo

Intro

--
A                Fm             E               D
[----0-5-7~~-9~~~----0-5-7~~-9~~~----0-5-7~~-9~~~----0-5-10~~-9~~~----]
[---------------------------------------------------------------------]
[---------------------------------------------------------------------]
[---------------------------------------------------------------------]
[---------------------------------------------------------------------]
[---------------------------------------------------------------------]
[---------------------------------------------------------------------]
[---------------------------------------------------------------------]
[----9-------9-------9-------9-------9-------9-------9-------9-------9]
[6797-7676797-7676797-7676797-7676797-7676797-7676797-7676797-7676797-]
[---------------------------------------------------------------------]
[---------------------------------------------------------------------]

Verse

-- Give Ame one good reason why I should tFmrust Or see the good in most of Eus When we came with love and left with lDust When we came with lies and learned to trAust. Give me good reason to beFmlieve In all I do and all I sEee In all I Dsee SBmlip into something more Fmcomfortable E TBmhey like you best when you are Evulnerable

Chorus

-- Just when you thought the wAorld was yours When you thought you Fmhad it all Just when you thought you'd Edone enough to get you through the nDight, The night, night. A Just when you thought the world was yFmours When you thought you had it Eall Just when you thought you'd done enoDugh to get you through the night,A The night, nightFm The night, night E The night, night D

Verse

-- Give Ame one good reason why I should Fmtrust In all these things that turn to Edust When we beg we get down on our kDnees When we're full we want to be eAmpty You loved the chase till it slowed Fmdown You love the hunt till it hit tEown, Till it hit tDown. BmSlip into sometEhing inviFmncible E

Chorus

--(x2)

Solo

--
Gtr 1 (dist.)
[----------------------------------------------]
[----------------------------------------------]
[76----76-9~~~~~~~-----------------------------]
[--67----6-------------------------------------]
[----------------------------------------------]
[----------------------------------------------]
Gtr 2 (dist.)
[----------------------------------------------]
[----------------------------------------------]
[----------------------------------------------]
[----------------------------------------------]
[54----54-7~~~~~~~-----------------------------] [--45----4-------------------------------------] Who do you tBmrust when all I know is jusFmt a hole in All the world? And I’ve been Asomewhere, I’ve been sEomewhere Who do you Bmturn to when the best of Fmeveryone you Knew has turned on? I’ve been Asomewhere, I’ve beeEn somewhere

Chorus

--(x5) end: ( A Fm E D A, let last A ring)