The Killers - Mr Brightside Acoustic Chords

 

Dsus2

variations
         
         
         
         
         
X
X
3
4
2 fr
         
         
         
         
         
X
3
1
1
2
4
2 fr
         
         
         
         
         
X
2
1
1
3
4
5 fr
         
         
         
         
         
X
1
3
4
1
1
7 fr
         
         
         
         
         
4
1
1
1
X
X
9 fr
         
         
         
         
         
X
X
3
1
2
4

Bm/A

         
         
         
         
         
X

Asus4

variations
         
         
         
         
         
X
1
2
4
2 fr
         
         
         
         
         
X
1
1
2
4
5 fr
         
         
         
         
         
1
3
3
3
1
1
7 fr
         
         
         
         
         
X
1
2
3
4
9 fr
         
         
         
         
         
X
3
4
1
2
X
12 fr
         
         
         
         
         
X
1
3
3
4
1

         
         
         
         
         
X
5 fr
         
         
         
         
         
X
No chord
Standard guitar tuning:
E
A
D
G
B
E
No capo
              eadgbe
DmajDsus27sus2 (x40230)

G/A

Bm/A

Asus4

it doesnt take a genius to work out this song is based around the shape and sound of Dsus2 as every chord is shaped around the (xx0230) Intro/Verse 1 this is repeated throughout the intro as well as verse 1, the chords are tabbed below for those that wish to strum
e------------0------------------0----------------0----------------0---------|
b------3---3---3----------3---3---3--------3---3---3--------3---3---3-------|
g----2---2-------2------2---2-------2----2---2-------2----2---2-------2-----|
d--0------------------------------------------------------------------------|
a---------------------4-----------------------------------------------------|
e--------------------------------------3----------------3-------------------|

Verse 1

Dsus2 Dmaj7sus2 I'm coming out of my cage And I’ve been doing just G/Afine Gotta gotta be G/Adown Because I want it all Dsus2 Dmaj7sus2 It started out with a kiss How did it end up like G/Athis It was only a kissG/A, it was only a kiss Dsus2 Dmaj7sus2 Now I’m falling asleep And she’s calling a G/Acab While he’s having a G/Asmoke And she’s taking a drag Dsus2 Dmaj7sus2 Now they’re going to bed And my stomach isG/A sick And it’s all in my G/Ahead But she’s touching his

Bridge

Bm/Achest Now, he takes off her Asus4dress Now, let me G/Ago Bm/A And I just can’t look its Asus4killing me And G/Ataking control

Chorus 1

Dsus2Jealousy, G/Aturning saints inBm/Ato the sea Asus4Swimming through sick Dsus2lullabies G/AChoking on your Bm/Aalibis Asus4But it’s just the Dsus2price I pay G/ADestiny is Bm/Acalling me Asus4Open up my Dsus2eager eyeG/As Bm/A ‘Cause I’m Mr Asus4Brightside

Verse 2

Dsus2 Dmaj7sus2 I'm coming out of my cage And I’ve been doing just G/Afine Gotta gotta be G/Adown Because I want it all Dsus2 Dmaj7sus2 It started out with a kiss How did it end up like G/Athis It was only a kissG/A, it was only a kiss Dsus2 Dmaj7sus2 Now I’m falling asleep And she’s calling a G/Acab While he’s having a G/Asmoke And she’s taking a drag Dsus2 Dmaj7sus2 Now they’re going to bed And my stomach isG/A sick And it’s all in my G/Ahead But she’s touching his

Bridge

Bm/Achest Now, he takes off her Asus4dress Now, let me G/Ago Bm/A And I just can’t look its Asus4killing me And G/Ataking control

Chorus 2

Dsus2Jealousy, G/Aturning saints inBm/Ato the sea Asus4Swimming through sick Dsus2lullabies G/AChoking on your Bm/Aalibis Asus4But it’s just the Dsus2price I pay G/ADestiny is Bm/Acalling me Asus4Open up my Dsus2eager eyeG/As Bm/A ‘Cause I’m Mr Asus4Brightside

Outro

this is optional but in my opinion its a good way to end it
e------------0------------------0----------------0--------------|
b------3---3---3----------3---3---3--------3---3---3-------3----|
g----2---2-------2------2---2-------2----2---2-------2-----2----| let this
d--0-------------------------------------------------------0----| note ring
a---------------------4-----------------------------------------|
e--------------------------------------3-------------------3----|
Please rate!