KISS - Goin Blind Chords

Main Riff
Main Riff
 

Am

variations
4 fr
         
         
         
         
1
3
4
1
1
1
6 fr
         
         
         
         
X
X
1
3
4
2
4 fr
         
         
         
         
X
X
3
1
1
1
         
         
         
         
4
2
1
X
X
X
8 fr
         
         
         
         
X
4
3
1
2
X
11 fr
         
         
         
         
X
1
3
4
2
1

Fm

variations
         
         
         
         
1
3
4
1
1
1
4 fr
         
         
         
         
X
X
1
3
4
2
         
         
         
         
X
X
3
1
1
1
9 fr
         
         
         
         
X
1
3
4
2
1
6 fr
         
         
         
         
X
4
3
1
2
X

Bm

variations
         
         
         
         
X
1
3
4
2
1
6 fr
         
         
         
         
1
3
4
1
1
1
         
         
         
         
X
1
3
4
2
X
6 fr
         
         
         
         
X
X
3
1
1
1
8 fr
         
         
         
         
X
X
1
3
4
2
10 fr
         
         
         
         
X
4
3
1
2
X

B5

variations
         
         
         
         
X
1
3
4
X
X
6 fr
         
         
         
         
1
3
4
X
X
X
8 fr
         
         
         
         
X
X
1
3
4
X
6 fr
         
         
         
         
X
X
3 fr
         
         
         
         
X
1
3
4
X
X
8 fr
         
         
         
         
1
3
4
X
X
X
10 fr
         
         
         
         
X
X
1
3
4
X
3 fr
         
         
         
         
X
X

E5

variations
         
         
         
         
X
X
1
3
4
X
6 fr
         
         
         
         
X
1
3
4
X
X
11 fr
         
         
         
         
1
3
4
X
X
X
6 fr
         
         
         
         
X
X
         
         
         
         
1
3
4
X
X
X
3 fr
         
         
         
         
X
X
1
3
4
X
8 fr
         
         
         
         
X
1
3
4
X
X
         
         
         
         
X
X
         
         
         
         
1
3
4
2
1
1
5 fr
         
         
         
         
X
4
3
1
2
1
3 fr
         
         
         
         
X
X
1
2
4
3
         
         
         
         
X
X
3
2
1
1
8 fr
         
         
         
         
X
1
3
3
3
1
10 fr
         
         
         
         
4
3
1
1
1
X

10 fr
         
         
         
         
3
2
1
1
1
4
No chord
Standard guitar tuning:
E
A
D
G
B
E
No capo
e:|Am---| |Fm---| |Bm---| |B5---| |C5---| |E5---| |F5---| |F---| B:|---| |---| |-2-| |---| |---| |---| |---| |---| G:|---| |---| |-3-| |---| |---| |-3-| |-5-| |---| D:|-6-| |-4-| |-3-| |-3-| |-5-| |-1-| |-3-| |-3-| A:|-6-| |-4-| |-1-| |-1-| |-3-| |---| |---| |-3-| E:|-4-| |-2-| |---| |---| |---| |---| |---| |-1-|

Intro

Am Fm Bm Am B5 C5 E5 F5

AmAnd I Fmknow how it should Bmbe AmThere is nothB5ing C5morE5e foF5r you and Fi AmSome are yoFmung and some are frBmee AmBut I B5thinC5k IE5m goFin Fblind Bm Am F *1 cause, I think Im goin blind Bm Am F *2 And I know how its to be, yeah AmLittle lFmady, cant you Bmsee AmYoure soB5 youC5ng E5and F5so much different Fthan i AmIm Fm93, youre Bmsixteen AmCant yoB5u seC5e IE5m goFin Fblind Bm Am F *1 cause, I think Im goin blind Bm Am F *2 And I know how its to be, yeah

solo

e:--------------------------------16b(18)~-16b~-16b~-16b---------------------|
B:-----16b(18)-16b/16-14~--16-14-------------------------14/16/14--14/16b-16b|
G:---------------------------------------------------------------------------|
D:---------------------------------------------------------------------------|
A:---------------------------------------------------------------------------|
E:---------------------------------------------------------------------------|
e:--------------------------------------------16---------------------16b~-16b|
B:-16b-16b-16b-16b-16b-16b-14------------16b~~~~16~~-16/14----14-------------|
G:-----------------------------15-15b~---------------------13----13----------|
D:---------------------------------------------------------------------------|
A:---------------------------------------------------------------------------|
E:---------------------------------------------------------------------------|
e:~-16b~-16b/16----------------------------------------------------------|
B:---------------14/16/14-14/16b--16b/16-16b/16-14-----------------------|
G:--------------------------------------------------13-15b--13-15b/15/15b|
D:-----------------------------------------------------------------------|
A:-----------------------------------------------------------------------|
E:-----------------------------------------------------------------------|
Bm Am F *1 cause, I think Im goin blind Bm Am F *2 And I know how its to be, yeah AmYoure much Fmyounger, cant you Bmsee AmThere is B5nothC5ingE5 morF5e for you and Fi AmIm Fm93, youre Bmsixteen AmCant yoB5u seC5e IE5m goFin Fblind BmYes, I Amthink Im goin Fblind BmAnd I know Amhow its to be, Fyeah