Konami - Metal Gear Solid Theme Chords

 
No chord
Standard guitar tuning:
E
A
D
G
B
E
No capo
|-----------------------------7-5------------5-7-10----9-10-12--|
|-7-5-----5-7-0-7-5-----5-7-------7---5----7--------------------|
|-----7---------------7-------------7---------------------------|
|---------------------------------------------------------------|
|---------------------------------------------------------------|
|---------------------------------------------------------------|
|-10-------------9--10-9-----------|
|----12----10-12---------12-10-12--|
|----------------------------------|
|----------------------------------|
|----------------------------------|
|----------------------------------|