Led Zeppelin - Black Country woman Chords

 
No chord
Standard guitar tuning:
E
A
D
G
B
E
No capo
-3--2--1--0--0--0--3--2--1--0--0------------------------------------------
-3--2--1--0--0--0--3--2--1--0--0------------------------------------------
-0--0--0--0--0--0--0--0--0--0--0------------------------------------------
-0--0--0--0--0--0--0--0--0--0--0------------------------------------------

Middle part

play different rhythms and variations with the following chords, switching back to the above beginning chords at appropriate times):
-8--7--5-----10--9--7------------------------------
-8--7--5-----10--9--7------------------------------
-5--5--5------7--7--7------------------------------
-5--5--5------7--7--7------------------------------
-5--5--5------7--7--7------------------------------

Ending

-0--0--0--0--0--2--0--3--------------
-0--0--0--0--0--2--0--3--------------
-0--0--0--0--0--0--0--0--------------
-0--0--0--0--0--0--0--0--------------
-3--2--1--0--0-----------------------
-0--0--0--0--0-----------------------
I'm doing this from memory so correct any mistakes I may have made. Hope this helps,