Legiao Urbana - A Cancao Do Senhor Da Guerra Chords

 
         
         
         
         
         
X
X
1
3
2
2 fr
         
         
         
         
         
X
4
3
1
2
1
5 fr
         
         
         
         
         
X
1
2
3
4
1
5 fr
         
         
         
         
         
X
1
4
4
4
X
7 fr
         
         
         
         
         
4
3
1
1
1
X
7 fr
         
         
         
         
         
3
2
1
1
1
4

10 fr
         
         
         
         
         
1
3
4
2
1
1
12 fr
         
         
         
         
         
X
X
1
3
4
3
5 fr
         
         
         
         
         
X
X
         
         
         
         
         
3
2
4
3 fr
         
         
         
         
         
1
3
4
2
1
1
         
         
         
         
         
2
1
3
4
3 fr
         
         
         
         
         
X
X
3
2
1
1
5 fr
         
         
         
         
         
X
X
1
3
4
3
7 fr
         
         
         
         
         
X
4
3
1
2
1

10 fr
         
         
         
         
         
X
1
2
3
4
X
10 fr
         
         
         
         
         
X
1
3
3
3
1
12 fr
         
         
         
         
         
3
2
1
1
1
4
         
         
         
         
         
2
3
3 fr
         
         
         
         
         
X
X
2
4
1
7 fr
         
         
         
         
         
X
1
3
4
2
1
2 fr
         
         
         
         
         
X
X
1
3
4
2
3 fr
         
         
         
         
         
X
3
2
4
1
4 fr
         
         
         
         
         
X
4
3
1
2
X

12 fr
         
         
         
         
         
1
3
4
1
1
1
         
         
         
         
         
X
1
2
3
5 fr
         
         
         
         
         
1
3
4
2
1
1
2 fr
         
         
         
         
         
X
1
1
1
4
         
         
         
         
         
X
X
1
2
2 fr
         
         
         
         
         
3
2
1
1
1
4
7 fr
         
         
         
         
         
X
X
1
3
4
3

9 fr
         
         
         
         
         
X
4
3
1
2
1
12 fr
         
         
         
         
         
X
1
3
3
3
1

D/F

variations
         
         
         
         
         
1
2
4
3
         
         
         
         
         
X
X
3
1
2
1
7 fr
         
         
         
         
         
X
3
1
1
1
4
2 fr
         
         
         
         
         
1
4
3
1
2
1
         
         
         
         
         
2
3
1
4 fr
         
         
         
         
         
X
4
3
1
2
1
7 fr
         
         
         
         
         
X
1
4
4
4
X
2 fr
         
         
         
         
         
X
X
1
2
4
3
4 fr
         
         
         
         
         
4
3
1
2
1
7 fr
         
         
         
         
         
X
1
3
3
3
1

9 fr
         
         
         
         
         
4
3
1
1
1
X
9 fr
         
         
         
         
         
3
2
1
1
1
4
12 fr
         
         
         
         
         
1
3
4
2
1
1
4 fr
         
         
         
         
         
X
         
         
         
         
         
1
3
1
2
1
1
3 fr
         
         
         
         
         
X
X
1
3
2
4
8 fr
         
         
         
         
         
X
1
3
1
4
1
         
         
         
         
         
1
3
1
2
4
1
         
         
         
         
         
1
X
2
4
3
X
8 fr
         
         
         
         
         
X
1
3
3
3
4

10 fr
         
         
         
         
         
4
3
1
1
1
2
         
         
         
         
         
X
3
2
1
3 fr
         
         
         
         
         
X
1
2
3
4
1
8 fr
         
         
         
         
         
1
3
4
2
1
1
3 fr
         
         
         
         
         
X
1
X
3
4
1
5 fr
         
         
         
         
         
3
2
1
1
1
4
10 fr
         
         
         
         
         
X
X
1
3
4
3

12 fr
         
         
         
         
         
X
4
3
1
2
1
3 fr
         
         
         
         
         
X
         
         
         
         
         
X
X
2
1
3
5 fr
         
         
         
         
         
X
1
3
1
4
1
5 fr
         
         
         
         
         
X
X
1
3
1
10 fr
         
         
         
         
         
1
3
1
2
1
1
5 fr
         
         
         
         
         
X
1
3
3
3
4
7 fr
         
         
         
         
         
4
3
1
1
1
2

10 fr
         
         
         
         
         
1
3
1
2
X
1
10 fr
         
         
         
         
         
1
3
1
2
4
1
12 fr
         
         
         
         
         
X
X
1
3
2
4
         
         
         
         
         
X
1
3
4
2
1
7 fr
         
         
         
         
         
1
3
4
1
1
1
         
         
         
         
         
X
1
3
4
2
X
7 fr
         
         
         
         
         
X
X
3
1
1
1
9 fr
         
         
         
         
         
X
X
1
3
4
2
11 fr
         
         
         
         
         
X
4
3
1
2
X

Fm

variations
         
         
         
         
         
1
3
4
1
1
1
4 fr
         
         
         
         
         
X
X
1
3
4
2
         
         
         
         
         
X
X
3
1
1
1
9 fr
         
         
         
         
         
X
1
3
4
2
1
6 fr
         
         
         
         
         
X
4
3
1
2
X

F

variations
         
         
         
         
         
1
3
4
2
1
1
         
         
         
         
         
X
X
3
2
1
1
6 fr
         
         
         
         
         
X
4
3
1
2
1
4 fr
         
         
         
         
         
X
X
1
2
4
3
9 fr
         
         
         
         
         
X
1
3
3
3
1
11 fr
         
         
         
         
         
4
3
1
1
1
X

11 fr
         
         
         
         
         
3
2
1
1
1
4
No chord
Standard guitar tuning:
E
A
D
G
B
E
No capo
Tom: D Intr.: D G Em A Introdução e Riff da música.
   D              G              Em              A
E|----------------------------------------------------------------------|
B|----------------------------------------------------------------------|
G|-5s7-7-5s7-7-7-7-------------------7s9-9-7s9-9-9-9--------------------|
D|-5s7-7-5s7-7-7-7--3s5-5-3s5-5-5-5--7s9-9-7s9-9-9-9--5s7-7-7-5s7-7-7-7-|
A|------------------3s5-5-3s5-5-5-5-------------------5s7-7-7-5s7-7-7-7-|
E|----------------------------------------------------------------------|
DExiste alguém espeGrando por vocEmê A Que vai compDrar a sua juvenGtude E convenEmcê-lo a venceAr GMais uma guerra sem razão

D/F

E

Mas lhe expF7licam novamente que a guerra gera emprego E AuCmenta a produção Uma Gguerra sempre avança a tecnologia Mesmo D/Fsendo guerra santa, quente, morna ou fria P'rá F7que exportar comida Se as armas dão mais Clucro na exportaçAão? DExiste alguém que está conGtando com vocEmê A P'rá luDtar em seu lugar já que Gnessa guerra Não é Emele quem vai morrAer E quando Dlonge de casa FeGrido e com frio o iniEmmigo você espeAra Ele estaDrá com outros velhos G Inventando novos jEmogos de guerrAa GE belíssimas cenas de deD/Fstruição

F7 C

GVeja que uniforme lindo fD/Fizemos pra você E F7lembre-se sempre que Deus está doC lado de quem vai veAncer
Antes do solo.
E|-----------|----------------------|
B|-----------|----------------------|
G|-----------|----------------------|
D|-----------|----------------------|
A|-----------|-7-5-5-3~--3-7-5-5-3~-|
E|-3s12s3-3~-|----------------------| Eu não sei se vc vai entender mas eu vou explicar. nessa parte é a parte que tem que raspar apalheta na corda. para que a raspada fique identica, vc deve segurar as cordas A & E na terceira casa. O (rp) significa raspar a palheta.
E|---------|
B|---------|
G|---------|
D|---------|
A|-3----rp-|
E|-3----rp-|

Solo

E|-5---------------------------------------------------9-10-12-14--10----10---------------------|
B|---7----------7-8-10-10-10-----12-10-12-10-12--10-12----------------12------10----10--10-12---|
G|-----7-7--7-9---------------11-------------------------------------------------11-----------9-|
D|----------------------------------------------------------------------------------------------|
A|----------------------------------------------------------------------------------------------|
E|----------------------------------------------------------------------------------------------|
E|-5---------------------------------------------------9-10-12-14--10----10---------------------|
B|---7----------7-8-10-10-10-----12-10-12-10-12--10-12----------------12------10----10----------|
G|-----7-7--7-9---------------11-------------------------------------------------11-----9-11----|
D|-------------------------------------------------------------------------------------------12-|
A|----------------------------------------------------------------------------------------------|
E|----------------------------------------------------------------------------------------------|
E|-10-14--10----10--------------------------10-14--10----9--9-10-12-10-|
B|-----------12-----10----10--------------------------10---------------|
G|---------------------11-----9-11-------------------------------------|
D|---------------------------------12----------------------------------|
A|---------------------------------------------------------------------|
E|---------------------------------------------------------------------|
Pra quem não vai fazer o solo, façA A base:(D D7 Bm Fm G Fm Em A) D/F G Em A DExiste alguém que está conGtando com vocEmê A P'rá luDtar em seu lugar já que Gnessa guerra Não é Emele quem vai morrAer E quando Dlonge de casa FeGrido e com frio o iniEmmigo você espeAra Ele estaDrá com outros velhos G Inventando novos jEmogos de guerrAa GE belíssimas cenas de desD/Ftruição

F7 C

GVeja que uniforme lindo fiD/Fzemos pra você E F7lembre-se sempre que Deus está doC lado de quem vai veAncer DO Senhor da Guerra não Bmgosta de criaAnças GO Senhor da GD/Fuerra não Emgosta de criaAnças... D Em A
Final
E|----------------|
B|-7-5--------5---|
G|-----7-6--7---7-|
D|----------------|
A|----------------|
E|----------------|
Acordes: D ->(557775) G ->(355433) G* ->(320033) E ->(779997) A ->(577655) D/F ->(200232) F7 ->(x03210) C ->(x32010) Bm ->(224432)