Legiao Urbana - Metal Contra As Nuvens Chords

 
         
         
         
         
         
2
3
1
4 fr
         
         
         
         
         
X
4
3
1
2
1
7 fr
         
         
         
         
         
X
1
4
4
4
X
2 fr
         
         
         
         
         
X
X
1
2
4
3
4 fr
         
         
         
         
         
4
3
1
2
1
7 fr
         
         
         
         
         
X
1
3
3
3
1

9 fr
         
         
         
         
         
4
3
1
1
1
X
9 fr
         
         
         
         
         
3
2
1
1
1
4
12 fr
         
         
         
         
         
1
3
4
2
1
1
4 fr
         
         
         
         
         
X
         
         
         
         
         
2
7 fr
         
         
         
         
         
X
1
3
1
2
1
         
         
         
         
         
X
X
1
3
2
2
         
         
         
         
         
1
2
4
4
         
         
         
         
         
2
3
4
         
         
         
         
         
2
4

3 fr
         
         
         
         
         
X
3
2
1
5 fr
         
         
         
         
         
X
2
1
3
1
4
7 fr
         
         
         
         
         
X
1
3
1
2
X
7 fr
         
         
         
         
         
X
1
3
1
2
4
12 fr
         
         
         
         
         
1
3
1
1
4
1
         
         
         
         
         
X
1
1
1
3
         
         
         
         
         
X
1
3
5 fr
         
         
         
         
         
1
3
1
2
1
1
7 fr
         
         
         
         
         
X
1
3
2
4
2 fr
         
         
         
         
         
4
3
1
1
1
2
5 fr
         
         
         
         
         
1
3
1
2
4
1

7 fr
         
         
         
         
         
X
X
1
3
2
4
10 fr
         
         
         
         
         
X
3
2
4
1
12 fr
         
         
         
         
         
X
1
3
3
3
4
         
         
         
         
         
X
3
2
1
3 fr
         
         
         
         
         
X
1
2
3
4
1
8 fr
         
         
         
         
         
1
3
4
2
1
1
3 fr
         
         
         
         
         
X
1
X
3
4
1
5 fr
         
         
         
         
         
3
2
1
1
1
4
10 fr
         
         
         
         
         
X
X
1
3
4
3

12 fr
         
         
         
         
         
X
4
3
1
2
1
3 fr
         
         
         
         
         
X
         
         
         
         
         
3
2
4
3 fr
         
         
         
         
         
1
3
4
2
1
1
         
         
         
         
         
2
1
3
4
3 fr
         
         
         
         
         
X
X
3
2
1
1
5 fr
         
         
         
         
         
X
X
1
3
4
3
7 fr
         
         
         
         
         
X
4
3
1
2
1

10 fr
         
         
         
         
         
X
1
2
3
4
X
10 fr
         
         
         
         
         
X
1
3
3
3
1
12 fr
         
         
         
         
         
3
2
1
1
1
4
9 fr
         
         
         
         
         
2
1
3
1
4
X
10 fr
         
         
         
         
         
1
3
1
2
1
4
5 fr
         
         
         
         
         
X

F

variations
         
         
         
         
         
1
3
4
2
1
1
         
         
         
         
         
X
X
3
2
1
1
6 fr
         
         
         
         
         
X
4
3
1
2
1
4 fr
         
         
         
         
         
X
X
1
2
4
3
9 fr
         
         
         
         
         
X
1
3
3
3
1
11 fr
         
         
         
         
         
4
3
1
1
1
X

11 fr
         
         
         
         
         
3
2
1
1
1
4
         
         
         
         
         
2
3
3 fr
         
         
         
         
         
X
X
2
4
1
7 fr
         
         
         
         
         
X
1
3
4
2
1
2 fr
         
         
         
         
         
X
X
1
3
4
2
3 fr
         
         
         
         
         
X
3
2
4
1
4 fr
         
         
         
         
         
X
4
3
1
2
X

12 fr
         
         
         
         
         
1
3
4
1
1
1
         
         
         
         
         
X
X
1
3
2
2 fr
         
         
         
         
         
X
4
3
1
2
1
5 fr
         
         
         
         
         
X
1
2
3
4
1
5 fr
         
         
         
         
         
X
1
4
4
4
X
7 fr
         
         
         
         
         
4
3
1
1
1
X
7 fr
         
         
         
         
         
3
2
1
1
1
4

10 fr
         
         
         
         
         
1
3
4
2
1
1
12 fr
         
         
         
         
         
X
X
1
3
4
3
5 fr
         
         
         
         
         
X
X
         
         
         
         
         
X
2
3
1
5 fr
         
         
         
         
         
1
3
4
1
1
1
5 fr
         
         
         
         
         
X
X
1
1
1
8 fr
         
         
         
         
         
X
3
2
4
1
2 fr
         
         
         
         
         
X
1
4
4
4
7 fr
         
         
         
         
         
X
1
3
4
2

9 fr
         
         
         
         
         
X
4
3
1
2
X
12 fr
         
         
         
         
         
X
1
3
4
2
1
5 fr
         
         
         
         
         
X

D/F

variations
         
         
         
         
         
1
2
4
3
         
         
         
         
         
X
X
3
1
2
1
7 fr
         
         
         
         
         
X
3
1
1
1
4
2 fr
         
         
         
         
         
1
4
3
1
2
1
         
         
         
         
         
X
1
2
X
X
5 fr
         
         
         
         
         
1
3
4
X
X
X
7 fr
         
         
         
         
         
X
X
1
3
4
X
         
         
         
         
         
X
X
5 fr
         
         
         
         
         
X
X
5 fr
         
         
         
         
         
X
X
         
         
         
         
         
3
4
2
1
3 fr
         
         
         
         
         
1
1
2
3
4
1
5 fr
         
         
         
         
         
X
X
1
1
1
4
3 fr
         
         
         
         
         
1
X
X
3
4
X
         
         
         
         
         
X
1
2
3
5 fr
         
         
         
         
         
1
3
4
2
1
1
2 fr
         
         
         
         
         
X
1
1
1
4
         
         
         
         
         
X
X
1
2
2 fr
         
         
         
         
         
3
2
1
1
1
4
7 fr
         
         
         
         
         
X
X
1
3
4
3

9 fr
         
         
         
         
         
X
4
3
1
2
1
12 fr
         
         
         
         
         
X
1
3
3
3
1
         
         
         
         
         
1
3
1
1
1
1
3 fr
         
         
         
         
         
X
X
1
4
2
3
8 fr
         
         
         
         
         
X
1
X
2
4
3
         
         
         
         
         
1
3
1
1
4
1
8 fr
         
         
         
         
         
X
1
3
1
2
1
6 fr
         
         
         
         
         
X
2
1
3
1
4

8 fr
         
         
         
         
         
X
1
3
1
2
X
8 fr
         
         
         
         
         
X
1
3
1
2
4

Am/G

         
         
         
         
         
4
X
2
3
1
3 fr
         
         
         
         
         
1
3
4
X
X
X
5 fr
         
         
         
         
         
X
X
1
3
4
X
10 fr
         
         
         
         
         
X
1
3
4
X
X
         
         
         
         
         
X
3 fr
         
         
         
         
         
X
X

Em/B

variations
         
         
         
         
         
X
2
3
7 fr
         
         
         
         
         
1
1
3
4
2
1
2 fr
         
         
         
         
         
X
1
X
3
4
2
         
         
         
         
         
X
1
2
4
2 fr
         
         
         
         
         
X
X
X
         
         
         
         
         
X
2
1
         
         
         
         
         
X
2
3
1
4
5 fr
         
         
         
         
         
X
1
1
1
1
5 fr
         
         
         
         
         
1
3
1
1
1
1
5 fr
         
         
         
         
         
1
3
1
1
4
1
7 fr
         
         
         
         
         
X
1
4
2
3

10 fr
         
         
         
         
         
X
2
1
3
1
4
12 fr
         
         
         
         
         
X
1
3
1
2
4
5 fr
         
         
         
         
         
X
7 fr
         
         
         
         
         
2
1
3
1
4
X
8 fr
         
         
         
         
         
1
3
1
2
1
4
No chord
Standard guitar tuning:
E
A
D
G
B
E
No capo
Tom: E

Intro

Em7 A7 C G D9 F

Em D C Am G D9 F

Em D C Am G D

Violão Solo:

Em7 A7

E|------------------0-----------------------| B|-----3-----3----2---2---------------------| G|---0-----0----0-------0-------------------| D|-2-----2-----2----------------------------| A|------------------------------------------| E|------------------------------------------|
   C           G       D9 F
E|---------------3-----2--------------------|
B|-----1-----1-----3-----3------------------|
G|---0-----0---------2-----2----------------|
D|-2-----0-----0----------------------------|
A|------------------------------------------|
E|------------------------------------------|
   Em       D          C
E|-----10--------7-----------5-3------------|
B|---8-------------5-------3-----5-3h5p3----|
G|-9------9\7-7------7\4-4---------------4\-|
D|------------------------------------------|
A|------------------------------------------|
E|------------------------------------------|
   Am      G        D/F
E|-----------3----------2h3p2---------------|
B|---1---------3------3-------3---3---------|
G|-----2---------4--2-----------2---2-------|
D|-2-----2-0--------------------------------|
A|------------------------------------------|
E|------------------------------------------|
Violão Base:

Em D C

E|-3-----3-2-----2-0-----0------------------| B|---0-------3-------1-----1----------------| G|-----0-------2-------0-------0------------| D|-2-------0--------------------------------| A|-----------------3---------2--------------| E|------------------------------------------|
   Am      G       D/F
E|------------------------------------------|
B|-1-----1-0-----0--------3-----------------|
G|---2-------0-----2----2---2---2-----------|
D|-----2-------0---0--0-------0-------------|
A|-0---------------0------------------------|
E|---------3-------2------------------------|
Primeira Parte: Não sou escravo de ninguGém D G Ninguém, senhor do meu domDínio A5 D Sei o que devo defendCer E, por valor eu tenho E tEmemo o que agora se desfA7az. D Viajamos sete lGéguas D G Por entre abismos e florDestasA5 D Por Deus nunca me vi tão sCó É a própria fé o que destrEmói Estes são dias desleA7ais. D Refrão: Eu sou metC/Gal D9 A G [G/f#] Em raio, relâmpago e trovão Eu sou metC/Gal D9 A G [G/f#] Em eu sou o ouro em seu brasão Eu sou metC/Gal D9 A me sabe o sopro do dragFm7ão G C Reconheço meu pesAmar Quando tAm/Gudo é traiçD9ão,F O que venho encontrFm7ar É a virtude em ouGtras mãos. Segunda Parte: A7 Minha tDerra G é a tEerra que é mA7inha D E sempre serGá E A7 Minha tDerra G tem a lEua, tem estrA7elasD E sempre terGá. E Terceira Parte:

A5 G5

QA5uase acreditei G5na suA5a promessa G5 A5E o que vejo é fome G5e destrA5uição G5 PerdA5i a minha sela G5e a mA5inha espadaG5 PerdA5i o meu castelo G5e minhA5a princesa.G5
Violão Solo - Riff:
E|---------------------------------------------------|
B|-------5-----------------------5-------------------|
G|-------5-------5/7-------------5-------/7-7-7-7p5--|
D|-7-5-7---7-6-5-----------5-6-7---7-6-5-------------|
A|-------------------5-6-7---------------------------|
E|---------------------------------------------------|
Violão Base - Riff:
E|---------------------------------------------------|
B|---------------------------------------------------|
G|---------------------------------------------------|
D|---------------------------------------------------|
A|-------3-------3h5-------------3-------3/5-5-5-5-3-|
E|-5-3h5---5-4-3-----2-1-0-3-4h5---5-4-3-------------|
QA5uase acrG5editA5ei G5 QA5uase acrG5editA5ei G5 A5E, por honraG5, sA5e existir verdaG5de ExA5istem os tolosG5 e exA5iste o ladrão G5 E A5há quem se alimente G5do que é A5roubo G5 Mas vou guardA5ar o meu tesouroG5 A5 G5 Caso vocA5ê esteja mentindG5o. A5 G5 Olha o A5sopro do draG5gãoA5 G5 Olha o sopA5ro do dragãoG5 A5 G5 Olha o soA5pro do dragãG5o A5 G5 Olha o sopA5ro do dragãoG5 A5 G5 Primeira Parte - variação: É a verdade o que assGombraD G O descaso que condDena A5 D A estupidez, o que destrCói Eu vejo tudo que se fEmoi E o que não existe mA7ais D Tenho os sentidos já dormGentesD G O corpo quer, a alma entDendeA5 D Esta é a terra-de-ninguCém Sei que devo resistEmir Eu quero a espada em minhas mA7ãos Refrão: Eu sou metC/Gal D9 A G [G/f#] Em raio, relâmpago e trovão Eu sou metC/Gal D9 A G [G/f#] Em eu sou o ouro em seu brasão Eu sou metC/Gal D9 A me sabe o sopro do dragFm7ão G C Não me entrego sem lutAmar Tenho, aAm/Ginda, coraçD9ão F Não aprendi a me rendFm7er Que caia o inimigo entGão

Em7 A7 C G D9 F

Refrão: Tudo pEm7assa,A7 tudo passarCá G D9 F Tudo pEm7assa,A7 tudo passará C G D9 F Tudo pEm7assa,A7 tudo passará C G D9 F Quarta Parte - Final: E nossa hisCtória nãoEm/B estará pelo aAm7vesso assim Sem finGal feliz C Teremos coisas bonEmitas pra contaAm7r D E CatDé lGá C VamDos vivGer TCemos muito aDinda pGor fazer C Não Dolhe pra trEmás ApCenas cDomeçamGos O mCundo comDeça agGora C D Em ApCenas cDomeçamGos. C9 G
Continuação - Primeira Parte:
E|-----3-----3----5-----3-----3----------------------|
B|---5---5----------5-----5-----5--------------------|
G|-5-------5---5------5-----5------------------------|
D|---------------------------------------------------|
A|---------------------------------------------------|
E|---------------------------------------------------|
E|---3-----3-----3-----3-----------------------------|
B|-----1-----1-----1-----1---------------------------|
G|-2-----2-----2-----2-----2-------------------------|
D|---------------------------------------------------|
A|---------------------------------------------------|
E|---------------------------------------------------|
E|---2-----2-----2-----2-----------------------------|
B|-----3-----3-----3-----3---------------------------|
G|-2-----2-----2-----2-----2-------------------------|
D|---------------------------------------------------|
A|---------------------------------------------------|
E|---------------------------------------------------|
E|---1-----1-----1-----1-----------------------------|
B|-----1-----1-----1-----1---------------------------|
G|-2-----2-----2-----2-----2-------------------------|
D|---------------------------------------------------|
A|---------------------------------------------------|
E|---------------------------------------------------|
E|-----3-----3-----3-----3---------------------------|
B|-------3-----3-----3-----3-------------------------|
G|-2/4-----4-----4-----4-----4-----------------------|
D|---------------------------------------------------|
A|---------------------------------------------------|
E|---------------------------------------------------|
Segunda Parte:
E|-9/7--5-—3--3--2--2h3p2-----2----------------------|
B|--------------------------3------------------------|
G|-9/7--6--4--4--2--------2--------------------------|
D|---------------------------------------------------|
A|---------------------------------------------------|
E|---------------------------------------------------|
E|-------3-----3------5\4-4--------------------------|
B|---------3-----3-----------------------------------|
G|-2-2/4-----4-----4--6\4-4-7/9----------------------|
D|---------------------------------------------------|
A|---------------------------------------------------|
E|---------------------------------------------------|
Terceira Parte:
E|---------------------------------------------------|
B|---------------------5b¼---------------7-7---7-7~--|
G|---------------------5b¼---------------7-7---7-7~--|
D|-7-x-x-7-x-x-7-x-x-7-----7-x-x-7-x-x-7-----7-------|
A|---------------------------------------------------|
E|---------------------------------------------------|
E|----------------------------------------------------|
B|---------------------5b¼----------------------------|
G|---------------------5b¼------------7p5---7p5---7p5-|
D|-7-x-x-7-x-x-7-x-x-7----7-x-x-7-x-x-----7-----7-----|
A|----------------------------------------------------|
E|----------------------------------------------------|