Les Cowboys Fringants - Intro Chords

 
No chord
Standard guitar tuning:
E
A
D
G
B
E
No capo
e-14-12--14-12---------------------------------------------------------12-14-15-17-|
B------15-----15-15-14-15p14-15-14-12-12-10-10-12-14-14-14-15-14-14-15-------------|
G----------------------------------------------------------------------------------|
D----------------------------------------------------------------------------------|
A----------------------------------------------------------------------------------|
E----------------------------------------------------------------------------------|
e-14-15-17-12-10-12-10-12-14-14-14-15-17-14-15-17-12-10-9-12-10-9-9---9-10-9-9----|
B-------------------------------------------------------------------12---------12-|
G---------------------------------------------------------------------------------|
D---------------------------------------------------------------------------------|
A---------------------------------------------------------------------------------|
E---------------------------------------------------------------------------------|
e-----------------10---22---------------------------------------------------------|
B-10-10-10-10-8------8------------------------------------------------------------|
G---------------7-----------------------------------------------------------------|
D---------------------------------------------------------------------------------|
A---------------------------------------------------------------------------------|
E---------------------------------------------------------------------------------|
ensuite quand il change pour le début d'étoiles filantes:
e-12-10-12----12-10-12----10-8-10---10-8-10----------------------| 2x
B----------10----------10---------8---------8--------------------|
G----------------------------------------------------------------|
D----------------------------------------------------------------|
A----------------------------------------------------------------|
E----------------------------------------------------------------|
Partition faite par Dave "DiEseLBoY" Gingras, Danick "DaN25" Larouche et Simon "PunkSkater" Roberge