Less Than Jake - Motto Chords

 
No chord
Standard guitar tuning:
E
A
D
G
B
E
No capo

Intro

G:---------------------------------------------------------------
D:---------------------------------------------------------------
A:555555555555------55555555555----------------------------------
E:---------------------------------------------------------------
Then play that a couple of times
G:---------------------------------------------------------------
D:---------------------------------------------------------------
A:555555555555-2222-55555555555-2222-555555555555-2222-----------
E:---------------------------------------------------------------

Verse

G:---------------------------------------------------------------
D:---------------------------------------------------------------
A:55-555-555-5-22-2--------------33-3----------------------------
E:------------------33-333-333-3---------------------------------
G:---------------------------------------------------------------
D:---------------------------------------------------------------
A:55-5-22-2------33-3-55-5-22-2------33-3------------------------
E:----------33-3----------------33-3-----------------------------
...im a reason away...
G:---------------------------------------------------------------
D:---------------------------------------------------------------
A:------------------------55555555-------------------------------
E:55555-35-555555-333-555---------------------------------------- ENDING (play each side 2X)
G:-------------------------------*-------------------------------
D:-------------------------------*-------------------------------
A:-------44455544-2222----23-5-5-*--------4444-44-22222---23-5-5-
E:555555---------------32--------*5555-55---------------32-------
G:---------------------------------------------------------------
D:------------------4-4-4-4-4-4-4-4------------------------------
A:-4-4-4-4-4-4-4-4-5-5-5-5-5-5-5-5-------------------------------
E:5-5-5-5-5-5-5-5-------------------5----------------------------